Emery - So Cold I Could See My Breath Chords & Tabs

 

So Cold I Could See My Breath Chords & Tabs

Emery Chords & Tabs

Version: 1 Type: Bass Tab

So Cold I Could See My Breath Bass Tab

Emery - So Cold I Could See My Breath

~ = Let ring

INTRO (0:06)             Let’s start with just...
G|---------------------------------------------||
D|---------------------------------------------||   
A|--11111111-11111111-11111111-33344444--------||
D|---------------------------------------------||

G|---------------------------------------------||
D|---------------------------------------------||   
A|---------------------------------------------||
D|--44444444-44444444-1111111-1~---------------||

VERSE (0:16)              You can be...
G|---------------------------------------------||
D|---------------------------------------------||   
A|-----------------------111~--------111~------||   x2
D|--111~------111~-----------------------------||

PRECHORUS (0:38)            How quickly...
G|---------------------------------------------||
D|---------------------------------------------||   
A|---------------------------------------------||
D|--11111111-----11111111----------------------||

At the end of each string of notes in the chorus,
stop the ring. Listen to the actual song to get
the exact rhythm.

CHORUS (0:43)             We’re just the...
G|---------------------------------------------||
D|---------------------------------------------||   
A|-3333--33--33--------------------------------||
D|-----------------6666----33--33--33-11-------||

G|---------------------------------------------||
D|---------------------------------------------||   
A|-3333--33--33--------------------------------||
D|-----------------3333-----------6~-----------||

VERSE (1:04)                 All the suspense...
G|---------------------------------------------||
D|---------------------------------------------||   
A|-----------------------111~--------111~------||   x2
D|--111~------111~-----------------------------||

PRECHORUS (1:26)            How quickly...
G|---------------------------------------------||
D|---------------------------------------------||   
A|---------------------------------------------||
D|--11111111--11111111--11111111--11111111-----||
[ Tab from: http://www.guitartabs.cc/tabs/e/emery/so_cold_i_could_see_my_breath_btab.html ]
G|---------------------------------------------||
D|---------------------------------------------||   
A|--11111111-11111111-11111111-11111111--------||
D|---------------------------------------------||
G|---------------------------------------------||
D|---------------------------------------------||   
A|---------------------------------------------||
D|--11111111--11111111--11111111--11111111-----||

G|---------------------------------------------||
D|---------------------------------------------||   
A|--11111111-44444444--------------------------||
D|---------------------------------------------||

REMEMBER: Do not let the notes ring.

CHORUS (1:47)             We’re just the...
G|---------------------------------------------||
D|---------------------------------------------||   
A|-3333--33--33--------------------------------||
D|-----------------6666----33--33--33-1-1------||

G|---------------------------------------------||
D|---------------------------------------------||   
A|-3333--33--33--------------------------------||
D|-----------------3333-----------6~-----------||

BRIDGE (2:08)			You could be...
G|---------------------------------------------||
D|---------------------------------------------||   
A|---------------------------------------------||
D|--333333333333333-6666666666666666-----------||

G|---------------------------------------------||
D|---------------------------------------------||   
A|--3333333333333333-1111111111111111----------||
D|---------------------------------------------||

G|---------------------------------------------||
D|---------------------------------------------||   
A|--3333333333333333---------------------------||
D|---------------------------------------------||

CHORUS (2:32)             We’re just the...
G|---------------------------------------------||
D|---------------------------------------------||   
A|-3333--33--33--------------------------------||
D|-----------------6666----33--33--33-1-1------||

G|---------------------------------------------||
D|---------------------------------------------||   
A|-3333--33--33--------------------------------||
D|-----------------3333-----------6~-----------||

OUTRO (2:54)		      My hands across...
G|---------------------------------------------||
D|---------------------------------------------||   
A|--3333333333333333---------------------------||
D|---------------------------------------------||

Good Luck with this song. Rate if you feel the need.