Emery - Secret Chords & Tabs

 

Secret Chords & Tabs

Emery Chords & Tabs

Version: 2 Type: Tab

Secret Tab

----------------------------------------------------------------------------
THE SECRET - Emery
----------------------------------------------------------------------------

Tabbed By: Ledleppard1975
Email: Pheasant1@yahoo.com

Tuning: EADGBe

I can't find this tab anywhere so i decided to tab it and its really easy.
Im about 70% sure its 100% correct, but it sounds excellent to me.


[ Tab from: http://www.guitartabs.cc/tabs/e/emery/secret_tab_ver_2.html ]
e|--------------------------------------------------------------|
B|--------------------------------------------------------------|
G|--------------------------------------------------------------|
D|---9---9---9---9---9---9-\-8---8---8---8---8--(8)--8---8---8--|
A|--------------------------------------------------------------|
E|-7---7---7---7---7---7---7---7---7---7---7--(7)--7---7---7----|

e|--------------------------------------------------------------|
B|--------------------------------------------------------------|
G|--------------------------------------------------------------|
D|---8---8---8-p-6---6---6---6---6---6--------------------------|
A|--------------------------------------------------------------|
E|-7---7---7---7---7---7---7---7---7----------------------------|


Just play that twice and you should be good, this is a really fun song to play.




| \  Slide Down
| p  Pull Off
|( ) Optional (palm-muted)


============================================================================