Emery - Secret Chords & Tabs

 

Secret Chords & Tabs

Emery Chords & Tabs

Version: 1 Type: Tab 0 ratings
1 star 2 stars 3 stars 4 stars 5 stars
comments

Secret Tab

   
----------------------------------------------------------------------------
			     The Secret - Emery
----------------------------------------------------------------------------
Tabbed by: maxtimo

This is a tab only for the ending solo!

I'm not sure about the amount of strums.

Tuning: EADGBE
[ Tab from: http://www.guitartabs.cc/tabs/e/emery/secret_tab.html ]
e|--15-15~-14------15-15-14-12-14---15-15-15-14~-14------15-15-14-12-14-----|
B|------------15------------------------------------15----------------------|
G|--------------------------------------------------------------------------|
D|--------------------------------------------------------------------------|
A|--------------------------------------------------------------------------|
E|--------------------------------------------------------------------------|

e|--15-14-15-14-14------15-14-15-17-17~-------------------------------------|
B|-----------------15-------------------------------------------------------|
G|--------------------------------------------------------------------------|
D|--------------------------------------------------------------------------|
A|--------------------------------------------------------------------------|
E|--------------------------------------------------------------------------|

| /  slide up
| \  slide down
| h  hammer-on
| p  pull-off
| ~  vibrato
| +  harmonic
| x  Mute note
===============================================================================
Comments