Emery - Rock-n-rule Chords & Tabs

 

Emery Chords & Tabs

Version: 1 Type: Tab 0 ratings
1 star 2 stars 3 stars 4 stars 5 stars
comments

Rock-n-rule Tab

   
-------------------------------------------------------------------------------
			     Rock-N-Rule - Emery
-------------------------------------------------------------------------------
Tabbed by: Matt Wilham
Email: matt_wilham88@hotmail.com

Tuning: Drop Db (Drop D, down half a step)


Intro (start out with just feedback, and hitting the body of your guitar)
       when the drums come in, just hit an open d, then pickslide

eb|---------------------------------------------------------------------------|
Bb|---------------------------------------------------------------------------|
Gb|---------------------------------------------------------------------------|
Db|--2p0-2p0-2p0--2~-p0-2p0-2p0-----------------------------------------------|
Ab|-------------2--------------2----------------------------------------------|
Db|---------------------------------------------------------------------------|
                                       pause for 6 counts after this

play this part twice
eb|----------0-0-0-0---------0-0-0-0---------0-0-0-0--------------------------|
Bb|----------0-0-0-0---------0-0-0-0---------0-0-0-0--------------------------|
Gb|----------3-3-3-3---------3-3-3-0---------3-3-3-3--------------------------|
Db|--2-2-2-2---------2-2-2-2---------5-5-5-5---------2-2-2-2---2---2----------|
Ab|--2-2-2-2---------2-2-2-2---------3-3-3-3---------0-0-0-0---0---0----------|
Db|--2-2-2-2---------2-2-2-2--------------------------------------------------|





eb|--0--------0--------0--------0---------------------------------------------|
Bb|--0--------0--------0--------0---------------------------------------------|
Gb|--5--------2--------5--------2---------------------------------------------|
Db|--5--x16---2--x16---5--x16---2--x9-----------------------------------------|
Ab|--3--------0--------3--------0---------------------------------------------|
Db|---------------------------------------------------------------------------|


on this part, it's twos...not 22s. play it twice
eb|---------------------------------------------------------------------------|
Bb|---------------------------------------------------------------------------|
Gb|--------------------4~-44-44-4~-44-44--2~-22-22-2~-22-22-2~-22-22-2~-22-222|
Db|-2~-22-22-2~-22-22--4~-44-44-4~-44-44--2~-22-22-2~-22-22-2~-22-22-2~-22-222|
Ab|-2~-22-22-2~-22-22--2~-22-22-2~-22-22--0~-00-00-0~-00-00-0~-00-00-0~-00-000|
Db|-2~-22-22-2~-22-22---------------------------------------------------------|





[ Tab from: http://www.guitartabs.cc/tabs/e/emery/rock_n_rule_tab.html ]
eb|---------------------------------------------------------------------------|
Bb|------------------------------------------------------3p0------------------|
Gb|---------------------------------------------------------------------------|
Db|--2p0-2p0-2p0--2~-p0-2p0-2p0---2p0-2p0-2p0--2~-p0-2s5-----5~---------------|
Ab|-------------2--------------2~------------2--------------------------------|
Db|---------------------------------------------------------------------------|

eb|---------------------------------------------------------------------------|
Bb|---------------------------------------------------------------------------|
Gb|---------------------------------------------------------------------------|
Db|--2p0-2p0-2p0--2~-p0-2p0-2p0---2p0-2p0-2p0--2------------------------------|
Ab|-------------2--------------2~------------2--------------------------------|
Db|---------------------------------------------------------------------------|

soft part "i drove around chicago..."
play this part 5 times
eb|--0~-------0~-------0~-------0~--|
Bb|--0~-------0~-------0~-------0~--|
Gb|--5~-------7~-------9~-------9~--|
Db|--5~-------7~-------9~-------9~--|
Ab|--3~-------5~-------7~-------7~--|
Db|-----------0~--------------------|

                    |play this part 4 times|
eb|--0~-------0~----|----------------------|
Bb|--0~-------0~----|----------------------|
Gb|--5~-------7~----|----7s9-----7s9-------|
Db|--5~-------7~----|----7s9-----7s9-------|
Ab|--3~-------5~----|----5s7-----5s7-------|
Db|-----------0~----|----------------------|




         play this 3 times 
eb|-----------------------------------|------------------|
Bb|-----------------------------------|------------------|
Gb|--------------12~-12-12-12----16\--|--------------12~-|
Db|--0h2--0h2-0---x~--x--x--x-0---x---|--0h2--0h2-0---x--|
Ab|--0h2--0h2-0--10~-10-10-10-0--14\--|--0h2--0h2-0--10~-|
Db|--0h2--0h2-0---------------0-------|--0h2--0h2-0------|





eb|--0~----0~----0~---------------0~----0~---|
Bb|--0~----0~----0~---------------0~----0~---|
Gb|--5~----7~----9~---------------5~----7~---|
Db|--5~----7~----9~------2--------5~----7~---|
Ab|--3~----5~----7~--2h3---3-2~---3~----5~---|
Db|--------0~---------------------------0~---|



eb|----------0-0-0-0---------0-0-0-0---------0-0-0-0---------0-0-0-0---|
Bb|----------0-0-0-0---------0-0-0-0---------0-0-0-0---------0-0-0-0---|
Gb|----------3-3-3-3---------3-3-3-0---------3-3-3-3---------3-3-3-0---|
Db|--2-2-2-2---------2-2-2-2---------2-2-2-2---------2-2-2-2-----------|
Ab|--2-2-2-2---------2-2-2-2---------2-2-2-2---------2-2-2-2-----------|
Db|--2-2-2-2---------2-2-2-2---------2-2-2-2---------2-2-2-2-----------|

eb|----------0-0-0-0--------------------------0-0-0-0---------0-0-0-0--|
Bb|----------0-0-0-0--------------------------0-0-0-0---------0-0-0-0--|
Gb|----------3-3-3-3--------------------------3-3-3-3---------3-3-3-3--|
Db|--5-5-5-5---------2-2-2-2---2---2--2-2-2-2---------2-2-2-2----------|
Ab|--3-3-3-3---------0-0-0-0---0---0--2-2-2-2---------2-2-2-2----------|
Db|-----------------------------------2-2-2-2---------2-2-2-2----------|


| /  slide up
| \  slide down
| h  hammer-on
| p  pull-off
| ~  vibrato
| +  harmonic
| x  Mute note
===============================================================================
Comments