Emery - As Your Voice Fades Chords & Tabs

 

As Your Voice Fades Chords & Tabs

Emery Chords & Tabs

Version: 1 Type: Bass Tab 0 ratings
1 star 2 stars 3 stars 4 stars 5 stars
comments

As Your Voice Fades Bass Tab

   
-----------------------------------------------------------------------------
A really sad song it shocks me so fucking out of the world!

-----------------------------------------------------------------------------

Tabbed By : Mario Oscar
e-mail: x17_89@hotmail.com

Tuning: Db,a,e,g.


 intro let ring each note:
|----------------------------------------------------------------------|
|----------------------------------------------------------------------|
|--2-----2------11-----------------------------------------------------|
|-2-2-7-2-5-5-5--------------------------------------------------------|

"Why did you die!..."
|--------------------------------------------------------------------|
|--------------------------------------------------------------------|
|-6-6666-6-66666-4-4444-4-4444-2124-2124-6-6666-6-6666-4-4444-4-4444-|
|--------------------------------------------------------------------|

Continues:
|---------------------------------------------------|
|---------------------------------------------------|
|-2124-2124-6-6666-6-6666-4-4444-4-4444-2124-2124---|
|---------------------------------------------------|

Here with me...
|---------------------------------------------------------------------|
|---------------------------------------------------------------------|
|-2222/6-2-4444/8-4-6-6666-8-8888-99999-11-11-11-11-2222/6-2-4444/8-4-|
|---------------------------------------------------------------------|
[ Tab from: http://www.guitartabs.cc/tabs/e/emery/as_your_voice_fades_btab.html ]
The brightness left your eyes...
|-------------------------------------------------|
|-------------------------------------------------|
|-2222222222222222-4-111111111111111--------------|
|-------------------------------------------------|

As i held your face...
|---------------------------------------------------------------------------|
|---------------------------------------------------------------------------|
|-----------------------------222222222222----------------------------------|
|-77777777777777-5555555555555------------2222222222222---------------------|


Until my end...
|------------------------------------------------|
|------------------------------------------------|
|-222222-6-222222-6-444444-8-444444-8------------|
|------------------------------------------------|

(2:10):
|----------------------------------------------------|
|----------------------------------------------------|
|-666-9-66-444-8-44-222-6-22-2-1-0---6---------------|
|---------------------------------6-4----------------|

(2:54):
|------------------------|
|------------------------|
|-66-44-22-22-66-44-22---|
|------------------------|

Forgoten...
|------------------------------------------------------------------|
|------------------------------------------------------------------|
|-----------------22222222222222-44444444444444-999-888-11-11-11-8-|
|-2222222222222222-------------------------------------------------|

End:
|-----------|      Y ya bueno ahi esta carnales,cuerdas y ke les vaya chido.
|-----------|
|-9-8-11-8--|
|-----------|
Comments