Emerson Lake And Palmer - From The Beginning Chords & Tabs

 

From The Beginning Chords & Tabs

Emerson Lake And Palmer Chords & Tabs

Version: 4 Type: Tab 0 ratings
1 star 2 stars 3 stars 4 stars 5 stars
comments

From The Beginning Tab

   
Band: Emerson, Lake and Palmer
Song: From the Beginning
Tabbled by ChrisGarMed
e-mail: christian_garmed@yahoo.com

Intro
e|------------12---10-12/10-----------------------|
b|---------12---------------12--10-12h13p12-12----|
g|------12-------------------------------------9--|
D|------------------------------------------------|
A|------------------------------------------------|
E|-0----------------------------------------------|

e|-----------------------------3---0--|
b|--6h8h9-------10/13-13-----0---3----|
g|------------0-----------------------|
D|------------------------------------|
A|----------0--------------0----------|
E|------------------------------------|

e|-----5---5-------5---5-------6---6-------6---6----|
b|---7---7---7---7---7---7---7---7---7---7---7---7--|
g|--------------------------------------------------|
D|-0-----------0-----------0-----------0------------|
A|--------------------------------------------------|
E|--------------------------------------------------|

e|-----2---2-------2---2----0--|
b|---3---3---3---3---3---3--3--|
g|--------------------------5--|
D|-0-----------0------------0--|
A|-----------------------------|
E|-----------------------------|

Fill
D|--------------|
A|---5---0------|
E|-3---3--------|

Verse: Am Am Am  G  G G G  Am 
 
Am        G
e|-0--|   e|-3-|
b|-2--|   b|-3-|
g|-3--|   g|-0-|
D|-3--|   D|-0-|
A|-0--|   A|-2-|
E|-0--|   E|-3-|

Arpegio
e|-----0-----------------3---------------3----------|
b|---0---0-----3-------3---3---3-------3---3---3----|
g|-----------2---2---0-------0---0---0-------0---0--|
D|--------------------------------------------------|
A|---------------------------------0----------------|
E|-0-------0-------0--------------------------------|

e|-------5---------------5-0---0--------|
b|-----3---3---3-------3-----3----------|
g|---0-------0---0---0-----------0------|
D|---------------------------------0----|
A|-----------------0-----------------0--|
E|-0---------------------------------0--|
[ Tab from: http://www.guitartabs.cc/tabs/e/emerson_lake_and_palmer/from_the_beginning_tab_ver_4.html ]
Pre Chorus                  |Fill 2
e|-3---3---3-------------0--|--------------------|
b|-3---3---3-----------0----|--------------------|
g|-0---0---0---------0------|--------------------|
D|-0---0---0-------0--------|--------------------|
A|---------------0----------|--------------------|
E|-------------0------------|-11h12p11h12p11h12--|

Fill 3 (fast)
e|------------------------|
b|------------------------|
g|------------------------|
D|---------------0-2-3-5--|
A|-0-2-3-5-2-3-5----------|
E|------------------------|

Solo (electric guitar)
e|---------------------------------------------|
b|---------------------------------------------|
g|-9/10-12-12/13-12------------------------14--|
D|------------------9----10-12-12/14p12-15-----|
A|---------------------------------------------|
E|---------------------------------------------|

e|------------------------------------------------------|
b|------------------------------------------------------|
g|-14-12----14-12----14---------------------------------|
D|-------12-------12--------14p12-10--------------------|
A|-------------------------------------10h11h12--11-12--|
E|------------------------------------------------------|

e|--------------------------------------------|
b|-------------------------------13/16-13-15--|
g|-------------------14----12-14--------------|
D|-10-12-12/14P12-15--------------------------|
A|--------------------------------------------|
E|--------------------------------------------|

e|---------------------------------|
b|-------13/16-13-15---------------|
g|-12-14------------------2h3-0h2--|
D|------------------------4--------|
A|------------------------4--------|
E|---------------------------------|

e|------------------------------------------------|
b|------------------------------------------------|
g|-------------------14-14-12--------------10vib--|
D|-10-12-12/14p12-15------------14p12-10----------|
A|------------------------------------------------|
E|------------------------------------------------|

Outro
e|-----7-5-----5--|
b|---7-----8-7----|
g|----------------|
D|-0--------------|
A|----------------|
E|----------------|


Order:
Intro
Fill
Verse (x3)
Arpegio
Verse 
Arpegio
Verse (x2)
Pre Chorus
Fill
Verse (x3)
Arpegio
Verse
Arpegio
Verse (x2)
Pre Chorus
Fill
Verse
Fill 3
Solo - Verse
       Arpegio
       Verse
       Arpegio
       Verse (x2)
       Pre Chorus
Fill
Verse (repeat several times until the outro)
-An Organ Part-
Outro

I'll try to work with the organ part later.
Comments