Embrace - Gravity Chords & Tabs

 

Gravity Chords & Tabs

Embrace Chords & Tabs

Version: 1 Type: Tab 0 ratings
1 star 2 stars 3 stars 4 stars 5 stars
comments

Gravity Tab

This is Gravity by Embrace piano song, more or less; that's my first tab but i'm almost 
it will be fine for a second guitar playing on the right chords, it sounds pretty cool!

[intro]

e --------------------------------------------------------|
B --------------------------------------------------------|
G ----8--0--7---------7--0--3------3--1-10-0-------0-0---|
D ----------------------------------------------3-3-------|
A --------------------------------------------------------|
E --------------------------------------------------------|

[verse]
[ Tab from: http://www.guitartabs.cc/tabs/e/embrace/gravity_tab.html ]
e --------------------------------------------------------|
B --------------------------------------------------------|
G ------0--7--5--------0--3--------3--1-10-0-------0-0---|
D ----1-------------1--------------------------3--3-------|
A --------------------------------------------------------|
E --------------------------------------------------------|

[chorus]

e --------------------------------------------------------|
B --------------------------------------------------------|
G --------------------------------------------------------|
D ----6-6-6-6-6-5-3-5---------------5-5-5-5-5-3-1-3-------|
A --------------------------------------------------------|
E --------------------------------------------------------|


For any problem mail me ay filippo207@interfree.it        Gian Filippo Cantarini
Comments