Embrace - Gravity Chords & Tabs

 

Gravity Chords & Tabs

Embrace Chords & Tabs

Version: 1 Type: Bass Tab 0 ratings
1 star 2 stars 3 stars 4 stars 5 stars
comments

Gravity Bass Tab

Artist: Embrace
Song: Gravity
Album: Out of Nothing
Tabbed by: Kmilongo (kmilo1989@gmail.com)
Tuning: Standard 4-string (GDAE)

Intro/Verse (Bass starts at 0:13)

G|---------------------------------------------------------------|
D|---------------------------------------------------------------|
A|6-6-6-6-6-6-6-6-3-3-3-3-3-3-3-3--------------------------------|
E|--------------------------------3-3-3-3-3-3-3-3-4-4-4-4-4-4-4-4| (x5)

Repeat this note before the chorus (1:21)

G|---------------------------------------------------------------|
D|---------------------------------------------------------------|
A|6-6-6-6-6-6-6-6-6-6-6-6-6-6-6-6--------------------------------|
E|---------------------------------------------------------------|

Chorus (1:27)

G|---------------------------------------------------------------|
D|---------------------------------------------------------------|
A|----------------6-6-6-6-6-6-6-5-3-3-3-3-3-3-1-1----------------|
E|4-4-4-4-4-4-4-4---------------------------------4-4-4-4-4-4-4-4| (x2)

Let ring after the chorus (1:55)

G|---------------------------------------------------------------|
D|---------------------------------------------------------------|
A|8~(let ring)---------------------------------------------------|
E|---------------------------------------------------------------|

Verse (2:01)

G|---------------------------------------------------------------|
D|---------------------------------------------------------------|
A|6-6-6-6-6-6-6-6-3-3-3-3-3-3-3-3--------------------------------|
E|--------------------------------3-3-3-3-3-3-3-3-4-4-4-4-4-4-4-4| (x4)
[ Tab from: http://www.guitartabs.cc/tabs/e/embrace/gravity_btab.html ]
Again, repeat this note (2:55)

G|---------------------------------------------------------------|
D|---------------------------------------------------------------|
A|6-6-6-6-6-6-6-6-6-6-6-6-6-6-6-6--------------------------------|
E|---------------------------------------------------------------|

Chorus (3:02)

G|---------------------------------------------------------------|
D|---------------------------------------------------------------|
A|----------------6-6-6-6-6-6-6-5-3-3-3-3-3-3-1-1----------------|
E|4-4-4-4-4-4-4-4---------------------------------4-4-4-4-4-4-4-4| (x2)

Again, let ring (3:29)

G|---------------------------------------------------------------|
D|---------------------------------------------------------------|
A|8~(let ring)---------------------------------------------------|
E|---------------------------------------------------------------|

Last verse (3:36, this one is different)

G|---------------------------------------------------------------|
D|--------------------------------5-5-5-5-5-5-5-5-6-6-6-6-6-6-6-6|
A|6-6-6-6-6-6-6-6-3-3-3-3-3-3-3-3--------------------------------|
E|---------------------------------------------------------------| (x3)

End of song (4:16, same as the last verse above but with a difference at the end) 

G|-------------------------------------------------------------------------|
D|--------------------------------5-5-5-5-5-5-5-5-6~(let ring)-------------|
A|6-6-6-6-6-6-6-6-3-3-3-3-3-3-3-3------------------------------6~(let ring)|
E|-------------------------------------------------------------------------|

So that's it. It's very easy!
This is my first tab so please rate!
Any suggestions to kmilo1989@gmail.com
Comments