Embrace - Good Will Out Chords & Tabs

 

Good Will Out Chords & Tabs

Embrace Chords & Tabs

Version: 1 Type: Tab 0 ratings
1 star 2 stars 3 stars 4 stars 5 stars
comments

Good Will Out Tab

   
The Good Will Out - Embrace - The Good Will Out LP
=================================================
Tab by Nick Aronson (na6631@bristol.ac.uk)
 ** GUITAR TUNED DOWN 2 FRETS (DGCFAD tuning) **
From Happy And Lost -- http://www.happyandlost.co.uk
=================================================
[ Tab from: http://www.guitartabs.cc/tabs/e/embrace/good_will_out_tab.html ]
E                       A
I saw you sing out your praise
	    F#m
Come on and lay
    B
The sunshine of my life's been burned
      A              E    A    E
And I didn't see the way
E
Swallow down your pride
	       A
It's wrong and I'll
	 F#m   A
Help you hide
A      F#m                  E
I feel sincerely you're too much
       B
You're too much
A                      F#m
All at the same time
   E
Oh I
	  B
Know much more
	  C#m
Of what I can
		  A
Than what I can't do
	    A
If I should fail
	  F#m
I'm gonna nail
	     E
The blame on you
       A             F#m
All my blame on you
E
Get it wrong and it makes you sore
    A
But you're
      F#m      A
Never right
A        F#m                E
I see it clearly you're too much
       B
You're too much
      A                     F#m
We're all on the same side
	   E
There must be a time
		 B
Between the well meaning
	 C#m
When the good will come out
    A
And start the healing
    E
You won't know
		B
How well you've played
	     A      F#m      E
Until you've won
E
And if at first you find
    B
you can't imagine
    C#m
How good can heal
		A
When you've got nothing worth healing
    E
You won't know
		B
How well you're made
	     A      F#m
Until you're done
	     E
All you have is gone
    A                       F#m
The good will come out
    A                       F#m
The good will come out
    A                       F#m
The good will come out

Outro has same chords as chorus

Part 1:

D -------------------------------------------------------------|
A -------------------------------------------------------------|
F -------------------------------------------------------------|
C -----2---2h4-6-4-2-------2---2h4-6-4-2-------2-2---2h4-6-4-2-|
G -2h4---4-------------2h4---4-------------2h4-----4-----------|
D -------------------------------------------------------------|

D ------------------------------------------------------------|
A ------------------------------------------------------------|
F ------------------------------------------------------------|
C -7-6-4-2--2h4-6-4-2-----------------------------------------|
G ------------------------------------------------------------|
D ------------------------------------------------------------|

Part 2:

D ------------------------------------------------------------|
A ------------------------------------------------------------|
F ------------------------------------------------------------|
C -----2---2h4-6-4-2-------2---2h4-6-4-2----------------------|
G -2h4---4-------------2h4---4--------------------------------|
D ------------------------------------------------------------|

D ------------------------------------------------------------|
A ------------------------------------------------------------|
F ------------------------------------------------------------|
C -7-6-4-2--2-----2h4-2------2h4-2--2h4-6-4-2-----------------|
G ------------2h4--------2h4----------------------------------|
D ------------------------------------------------------------|

Repeat parts 1 and 2 alternately.
Comments