Embodyment - One Less Addiction Chords & Tabs

 

One Less Addiction Chords & Tabs

Embodyment Chords & Tabs

Version: 1 Type: Tab 0 ratings
1 star 2 stars 3 stars 4 stars 5 stars
comments

One Less Addiction Tab

Artist: Embodyment
Song: One Less Addiction
Album: The Narrow Scope of Things

If any corrections email at:
Terminator2404@hotmail.com

This song is in either drop D or E
You can pick whatever you want..
But the verse sounds better in D
Btw.. You gotta figure the beat out

Intro 2x (Played clean, slow)
E-----------------
B-0--0--0--0-0-0--
G-9--9--9--9-9-9--
D-9--9--9--9-9-9--
A-7--7--7--7-7-7--
D-----------------

Verse 1

(I Fight This With...)
E--------------------------------
B-0--0--0--0-0-0---0--0--0--0-0-0
G-9--9--9--9-9-9---4--4--4--4-4-4
D-9--9--9--9-9-9---4--4--4--4-4-4
A-7--7--7--7-7-7---2--2--2--2-2-2
D--------------------------------

Chorus 8x (Distorted, Guitar 1)
[ Tab from: http://www.guitartabs.cc/tabs/e/embodyment/one_less_addiction_tab.html ]
(I confess the changes..)
E--------------------------------
B--------------------------------
G-9--9--9--9-9-9---4--4--4--4-4-4
D-9--9--9--9-9-9---4--4--4--4-4-4
A-7--7--7--7-7-7---2--2--2--2-2-2
D--------------------------------

Chorus (guitar 2)
E--------------------------------
B--------------------------------
G-4--\9--9-9--11-11-11--9--------
D-x--\x--x-x--x--x--x---x--------
A-2--\7--7-7--9--9--9---7--------
D--------------------------------

Verse 2 4x
(While You Speak In Code..)
E------------------------------------
B------------------------------------
G-4--4444--\9--9999---2-2-2-2-2-2-2-2
D-4--4444--\9--9999---2-2-2-2-2-2-2-2
A-2--2222--\7--7777---0-0-0-0-0-0-0-0
D-2--2222--\7--7777---0-0-0-0-0-0-0-0


Ending 6x
(Now im hooked..)
E--------
B-0----0-
G-9----4-
D-9----4-
A-7----2-
D--------
Comments