Emanuel - The Willing Chords & Tabs

 

The Willing Chords & Tabs

Emanuel Chords & Tabs

Version: 1 Type: Tab 0 ratings
1 star 2 stars 3 stars 4 stars 5 stars
comments

The Willing Tab

Artist: Emanuel
Song: "The Willing"
Album: Soundtrack to a Headrush
Tabbed By: dsniderman

Standard Tuning

Intro: x1
e-------------------------------------|
B-------------------------------------|
G-------------------------------------|
D----4~-----5~-----4~-----5-5-5-5-----|
A----4~-----5~-----4~-----5-5-5-5-----|
E----2~-----3~-----2~-----3-3-3-3-----|

Verse: x4
e-----------------------------------------------|
B-----------------------------------------------|
G-----------------------------------------------|
D----4-4-4-4-4-4---5-5---2-2-2-2-2-2---5-5------|
A----4-4-4-4-4-4---5-5---2-2-2-2-2-2---5-5------|
E----2-2-2-2-2-2---3-3---0-0-0-0-0-0---3-3------|
     * * * * * *   * *   * * * * * *   * *
e-----------------------------------------------  Last time:---------------|
B-----------------------------------------------            ---------------|
G-----------------------------------------------            ---------------|
D----4-4-4-4-4-4---5-5---2-2-2-2-2-2---2x-2x----            ---2-2-2-2-2-2-|
A----4-4-4-4-4-4---5-5---2-2-2-2-2-2---2x-2x----            ---2-2-2-2-2-2-|
E----2-2-2-2-2-2---3-3---0-0-0-0-0-0---0x-0x----            ---0-0-0-0-0-0-|
     * * * * * *   * *   * * * * * *                Slowly Release Palm mute.
[ Tab from: http://www.guitartabs.cc/tabs/e/emanuel/the_willing_tab.html ]
Pre Chorus: x2
e-----------------------------------------------|
B-----------------------------------------------|
G-----------------------------------------------|
D----4-4-4-4-4-4---5-5---2-2-2-2-2-2---5-5------|
A----4-4-4-4-4-4---5-5---2-2-2-2-2-2---5-5------|
E----2-2-2-2-2-2---3-3---0-0-0-0-0-0---3-3------|
                     First time        Second time
e------------------ I---------------- I-------------|
B------------------ I---------------- I-------------|
G------------------ I---------------- I-------------|
D----4-4-4x---5-5-- I--2-2-22222222-- I--2-2-222----|
A----4-4-4x---5-5-- I--2-2-22222222-- I--2-2-222----|
E----2-2-2x---3-3-- I--0-0-00000000-- I--0-0-000----|
                           ********          **

Chorus: x2
e------------------------------------------------|
B------------------------------------------------|
G----6-6--666------------------------------------|
D----6-6--666---7-7-777---4-4-444---4-4-444------|
A----4-4--444---7-7-777---4-4-444---4-4-444------|
E---------------5-5-555---2-2-222---2-2-222------|

e------------------------------------------------|
B------------------------------------------------|
G----6-6--666------------------------------------|
D----6-6--666---7-7-777---4-4-444-2---4-4-444-2--|
A----4-4--444---7-7-777---4-4-444-2---4-4-444-2--|
E---------------5-5-555---2-2-222-0---2-2-222-0--|

Verse: x5

Pre Chorus: x2

Chorus: x2

Interlude: x4                  First: 3 times         Last time:
e-------------------------- I---------------------- I-----------------------|
B-------------------------- I---------------------- I-----------------------|
G-------------------------- I---------------------- I-----------------------|
D----7-7-7-7--5--2-2-2-2--- I--5--4-4-4-4-4-4-4-4-- I--5--(Then go to Post--|
A----7-7-7-7--5--2-2-2-2--- I--5--4-4-4-4-4-4-4-4-- I--5------Interlude)----|
E----5-5-5-5--3--0-0-0-0--- I--3--2-2-2-2-2-2-2-2-- I--3--------------------|

Post Interlude: x1
e---------------------------|
B---------------------------|
G----6~---------------------|
D----6~---7~---4~---~-------|
A----4~---7~---4~---~-------|
E---------5~---2~---~-------|

e---------------------------|
B---------------------------|
G----6~---------------------|
D----6~---7~---4~---4-4-4-4-|
A----4~---7~---4~---4-4-4-4-|
E---------5~---2~---2-2-2-2-|

Chorus: x2

Pre Chorus: x2

End With
e------------|
B------------|
G------------|
D---4x-4x-4--|
A---4x-4x-4--|
E---2x-2x-2--|


www.thisisemanuel.com
Comments