Emanuel - Buy American Machines Chords & Tabs

 

Buy American Machines Chords & Tabs

Emanuel Chords & Tabs

Version: 1 Type: Tab 0 ratings
1 star 2 stars 3 stars 4 stars 5 stars
comments

Buy American Machines Tab

   
Band - Emanuel
Song - Buy American Machines
Album - A Soundtrack to a Headrush
Tuning - Db Ab Db Gb Bb Eb

The Best song of Emanuels debut CD "A Soundtrack to a Headrush"

Intro - Guitar 1

eb:-------------------------------------------------:
bb:-------------------------------------------------:
gb:-7-7-7-7-----7-7-7-7-----7-7-7-7-----------------:
Db:-x-x-x-x-6-6-x-x-x-x-6-6-x-x-x-x-6-6-3-0-3-0-3-5-:
Ab:-5-5-5-5-6-6-5-5-5-5-6-6-5-5-5-5-6-6-3-0-3-0-3-5-:
Db:---------6-6---------6-6---------6-6-3-0-3-0-3-5-:

Guitar 2

eb:--------------------------------------------:
bb:--------------------------------------------:
gb:--------------------------------------------:
db:-0-0------0-0-------0-0---------3-0-3-0-3-5-:
ab:-0-0------0-0-------0-0---------3-0-3-0-3-5-:
Db:-0-0------0-0-------0-0---------3-0-3-0-3-5-:


Verse
[ Tab from: http://www.guitartabs.cc/tabs/e/emanuel/buy_american_machines_tab.html ]
"Holly was acting depressed..."
eb:-------------------------------------------------:
bb:-------------------------------------------------:
gb:-7-7-7-7-7-7-7-7-7-5-5-5-5-5-5-5-5-5-------------:
Db:-7-7-7-7-7-7-7-7-7-5-5-5-5-5-5-5-5-5-3-0-3-0-3-5-:
Ab:-5-5-5-5-5-5-5-5-5-3-3-3-3-3-3-3-3-3-3-0-3-0-3-5-:
Db:-------------------------------------3-0-3-0-3-5-:

Chorus

"Buy American Machines"

eb:-------------------------------------------------:
bb:-------------------------------------------------:
gb:-7-7-7-7-----7-7-7-7-----7-7-7-7-----------------:
Db:-x-x-x-x-6-6-x-x-x-x-6-6-x-x-x-x-6-6-3-0-3-0-3-5-:
Ab:-5-5-5-5-6-6-5-5-5-5-6-6-5-5-5-5-6-6-3-0-3-0-3-5-:
Db:---------6-6---------6-6---------6-6-3-0-3-0-3-5-:


Bridge

"Cause everything you do..."

eb:-----------------------------------------------------------------------:
bb:-----------------------------------------------------------------------:
gb:-----------------------------------------------------------------------:
db:-----------------------3-------------------------3-5-5-3-0-3-5-5-5-5-5-:
ab:-----------------------3-------------------------3-5-5-3-0-3-5-5-5-5-5-:
Db:-5-5-5-5-5-5-5-5-5-5-5-3-5-5-5-5-5-5-5-5-5-5-5-5-3-5-5-3-0-3-5-5-5-5-5-:
Comments