Elza Sam - Flimango Chords & Tabs

 

Flimango Chords & Tabs

Elza Sam Chords & Tabs

Version: 1 Type: Tab 1 rating
1 star 2 stars 3 stars 4 stars 5 stars
comments

Flimango Tab

   
MOD-116 bmp.
|----10------------10------------10-----------5----------5---------5--------0-------0-------0---------0-------------------------------
|*-------------------------------------------------------------------------------------------------------------0-------------------------------
|---------0------0------0------0------0-----------0----0----0----0---0--------0--0---0--0---0----------------------------------------
|------------10------------10------------10--------5----------5--------5-/------7-------7-------7----1--2--1--0--1-----------------
|*------------------------------------------------------------------------------------------------------------------------------------------------
|------------------------------------------------------------------------------------------------------------------------------------------------

|---3--1---0------------------------------------------------1----1-1-----0--------------0----------0----------------0------0-----0------0-----0-
|---5---3------2-----------------------------0------3----3-3-----2--/--10--8--7----2--------------0----0------0-----0------0-----0--
|-------------------2--------------0--7--0------------------3---3-3------2---------------------------------0----7------3-----2-----10----10---
|------------------------X-/-7--0----------------------------2---2-2------1-------------------------------5-----------------------------------------
|--------------------------------------------------------------1----1-1-----0--------------------------------------------------------------------------|--------------------------------------------------------------1-----1-1----0--------------------4----5----------------------------------------------
[ Tab from: http://www.guitartabs.cc/tabs/e/elza_sam/flimango_tab.html ]
                          G G          F F         E E           G G
|----------------------------------10-----------5--5---------0----------------10--10--5--5--0--0--0--0---------------------10--------5--
|---------------------------------------------------------------------------------------------------------------------------------------------*-----
|---10------10----------------------------------------------------------------------------------------------------------------------------
|----------------------------------10----------5--5---------2---4------------10--10--5--5--7--7--1--1--2--1--0--1--2--10---------5---
|---------------------------------------------------------------------------------------------------------------------------------------------*-----
|---------------------------------------------------------------------------------------------------------------------------------------------------

                                                                                        incr tempo rep beg.
|--3--1--0------------------------------------------------10  9  9  7  5  7  4------10--------10--------10--------------------------
|--5--3-----2----X--/--7--0----/--7--0-----------------------------------------------------------------------------------------------------
|---------------2---------------0--------------------------------------------------------------0---0-----0---0-----0---0-------------------
|-----------------------------------------------------------10  9  9  7  5  7  4------------10--------10--------10--------------------
|----------------------------------------------8--6---------------------------------------------------------------------------------------------
|-------------------------------------------------------------------------------------------------------------------------------------------------

|--5------5------5-----0-------0------0------0-----------------------------------------------------10--------10---------10---------------
|-------------------------------------------------0--------------------------4---2---0--------------------------------------------------------
|----0--0--0--0--0--0--0---0--0--0--0-0-------------------------------------------------------------0----0-----0----0-----0----0------
|------5------5-----5-------7------7-----7----1--2--1--0--1-----2-------------------------------------10---------10---------10--------
|-----------------------------------------------------------------------------5---3---2--0--2--------------------------------------------------
|----------------------------------------------------------------------------------------------5--/-------------------------------------------------

|--5--------5--------5--------0-------0-------0-------0------------------------------10--9--9--7--5--7--4--2------------5--------------
|----------------------------------------------------------0-------------------2-----------------------------------------2-------------------------
|----0---0----0---0---0---0---0---0---0--0--0--0-----------------------------------------------------------------------------------------
|------5---------5--------5--------7-------7------7----1--2--1--0--1--------------10--9--9--7--5--7--4--2-------------------------
|---------------------------------------------------------------------------------p---------------------------------------------------------------
|-------------------------------------------------------------------------------4---0-------------------------------------4--0---5------------------
Comments