Elvis Presley - One Night Chords & Tabs

 

One Night Chords & Tabs

Elvis Presley Chords & Tabs

Version: 1 Type: Bass Tab 0 ratings
1 star 2 stars 3 stars 4 stars 5 stars
comments

One Night Bass Tab

   
ONE NIGHT       Elvis Presley

Album: The Ultimate Collection
Tabbed By : Crash

Tuning: Standard (G D A E)

Before trying this out, listen to the song carefully to get the timing accurate.  

Intro:

G|-----------------------------------|
D|-----------------------------------|
A|-----------------------------------|
E|-0-0-0-0-0-0-0-0-5-5-5-5-5-5-5-5-0-|

Verse:

G|-------------------------|
D|-------------------------|
A|-------------------------|
E|-4-5-6-0---------4-5-6-0-|

For this lyrics, there's no bass:

Is what I'm now praying for
The things that we two could plan
Would make my dreams come true

G|---------------------------------|
D|---------------------------------|
A|---------------------------------|
E|-0-0-0-0-0-0-0-0-0-0-0-0-0-0-0-0-|

Verse 2:

G|---------|
D|---------|
A|---------|
E|-4-5-6-0-|

No bass again for these lyrics:

And I'll be right by your side
I want your sweet helping hand
My loves too strong to hide
[ Tab from: http://www.guitartabs.cc/tabs/e/elvis_presley/one_night_btab.html ]
G|-------------------------------------|
D|-------------------------------------|
A|-------------------------------------|
E|-0--0-0--0-0--0-0--0-0-0-0-0-0-0-0-0-|

Chorus:

G|----------------------------------------------------------|
D|----------------------------------------------------------|
A|----------------------------------------------------------|
E|-3-4-5--5--5--5--5-2-2-2-2-5--5--5--5-4-5-6-0---------4-5-|

No bass:

Now I know that life without you
Has been too lonely too long

Outro:

G|----------------------------------------|
D|----------------------------------------|
A|----------------------------------------|
E|-0-0-0-0-0-0-0-0-5-5-5-5-5-5-5-5-0--5-0-|


Order:

Intro
Verse
Verse 2
Chorus
Verse
Chorus
Verse
Outro

| /  slide up
| \  slide down
| h  hammer-on
| p  pull-off
| ~  vibrato
| +  harmonic
| x  Mute note

Well there you go, here is the tab for this song.  Remember to listen
to it 1st before you play it.  You can print it if you want.  Enjoy!

===============================================================================
Comments