Elvis Presley - Jailhouse Rock Chords & Tabs

 

Jailhouse Rock Chords & Tabs

Elvis Presley Chords & Tabs

Version: 4 Type: Tab

Jailhouse Rock Tab

I saw this tab and played it over the actual song and found it was tabbed wrong,
so I thought I'd correct it. This is my first tab, so e-mail me if I fucked up and
it's still wrong, haha....

Josh
Van City Underground

Drop D Tuning (DADCGE)

 Intro
|-------|-------|
|-------|-------|
|-6~-7~-|-6~-7~-|
|-6~-7~-|-6~-7~-|
|-4~-5~-|-4~-5~-|
|-------|-------|

 Verse
|-------|-------|-------|-------|
|-------|-------|-------|-------|
|-6~-7~-|-6~-7~-|-6~-7~-|-6~-7~-|
|-6~-7~-|-6~-7~-|-6~-7~-|-6~-7~-|
|-4~-5~-|-4~-5~-|-4~-5~-|-4~-5~-|
|-------|-------|-------|-------|

 Chorus (slightly palm muted)
|---------------------------------|---------------------------------|
|---------------------------------|---------------------------------|
|---------------------------------|---------------------------------|
|---------0-0-2-0---------0-0-2-0-|---------------------------------|
|-----2-2-------------2-2---------|---------0-0-2-0---------0-0-2-0-|
|-5-5-------------5-5-------------|-0-0-4-4---------0-0-4-4---------|
[ Tab from: http://www.guitartabs.cc/tabs/e/elvis_presley/jailhouse_rock_tab_ver_4.html ]
|---------------------------------|-------------------------------|
|---------------------------------|-------------------------------|
|---------------------------------|-------------------------------|
|-----0-0-2-2-4-2---------0-0-2-0-|-------------------------------|
|-2-2-----------------2-2---------|---------0-0-2-0---------0-0-2-|
|-----------------5-5-------------|-0-0-4-4---------0-0-4-4-------|


 Solo                                     |<*bend G String notes*>|
|-10-10-10--10-10-10--10-10-10--10-10-10--|-------0-----0-----0---|
|-10-10-10--10-10-10--10-10-10--10-10-10--|-7-7-7---7-7---7-7---7-|
|-----------------------------------------|-----------------------|
|-----------------------------------------|-----------------------|
|-----------------------------------------|-----------------------|
|-----------------------------------------|-----------------------|

|-------------------------|-------------------|
|-------------------------|-------3-----3---3-|
|-2-2-2--2-2--------------|-------2-----2---2-|
|-2-2-2--2-2--5-5-5--5-5--|-0-0-0---0-0---0-0-|
|-0-0-0--0-0--5-5-5--5-5--|-0-0-0---0-0---0-0-|
|-------------5-5-5--5-5--|-0-0-0---0-0---0-0-|

Outro
|---------------------------------|
|---------------------------------|
|---------------------------------|
|---------------------------------| Repeat X4
|---------0-0-2-0---------0-0-2-0-|
|-0-0-4-4---------0-0-4-4---------|


Verse
Chorus
Verse
Chorus
Verse
Chorus
Solo
Verse
Chorus
Verse
Chorus
Outro

vancityunderground@hotmail.com