Elvis Presley - Jailhouse Rock Chords & Tabs

 

Jailhouse Rock Chords & Tabs

Elvis Presley Chords & Tabs

Version: 3 Type: Tab 0 ratings
1 star 2 stars 3 stars 4 stars 5 stars
comments

Jailhouse Rock Tab

                                 JAILHOUSE ROCK
                          As recorded by Elvis Presley
                     (From the 2002 Album ELVIS 30 #1 HITS)

Words and Music by Jerry Leiber & Mike Stoller
Transcribed by www.mikesguitarsite.co.uk

 Intro                                      Verses
  Q=164
                                         $
 4/4
  Gtr I
|------||-----------|-----------------||-||-----------|----------------|
|--4---||o-5--------|-(5)----(5)-4---o||-||o-5--------|-(5)----(5)-4---|
|--3---||--4--------|-(4)----(4)-3----||-||--4--------|-(4)----(4)-3---|
|--5---||--6--------|-(6)----(6)-5----||-||--6--------|-(6)----(6)-5---|
|--6---||o-7--------|-(7)----(7)-6---o||-||o-7--------|-(7)----(7)-6---|
|------||-----------|-----------------||-||-----------|----------------|


|----------|----------------|----------|---------------|
|-5--------|-(5)----(5)-4---|-5--------|-(5)----(5)-4--|
|-4--------|-(4)----(4)-3---|-4--------|-(4)----(4)-3--|
|-6--------|-(6)----(6)-5---|-6--------|-(6)----(6)-5--|
|-7--------|-(7)----(7)-6---|-7--------|-(7)----(7)-6--|
|----------|----------------|----------|---------------|


                       Chorus
                        PM------------------------------|
|----------|---------||-----------------|------------------|
|-5--------|---------||-----------------|------------------|
|-4--------|---------||-----------------|------------------|
|-6--------|---------||---------2-2-4-2-|---------2-2-4-2--|
|-7--------|---------||-0-0-4-4---------|-0-0-4-4----------|
|----------|---------||-----------------|------------------|


  PM------------------------------------------------|
|-----------------|-----------------|-----------------|
|-----------------|-----------------|-----------------|
|-----------------|-----------------|-----------------|
|-----------------|-----------------|---------4-4-6-4-|
|---------2-2-4-2-|---------2-2-4-2-|-2-2-6-6---------|
|-0-0-4-4---------|-0-0-4-4---------|-----------------|


                                     1.,2.,D.S.
                             To Coda
  PM----------------------------------------------|
|-----------------|-----------------|-----------------||
|-----------------|-----------------|----------------o||
|-----------------|-----------------|-----------------||
|---------2-2-4-2-|-----------------|-----------------||
|-0-0-4-4---------|---------2-2-4-2-|---------2-2h4--o||
|-----------------|-0-0-4-4---------|-0-0-4-4---------||

[ Tab from: http://www.guitartabs.cc/tabs/e/elvis_presley/jailhouse_rock_tab_ver_3.html ]
                    Guitar Solo
  3.
  PM----------|
|-----------------||--12-12-12-(12)----12-12-|-(12)----12-12-(12)-12-12--|
|-----------------||---x--x--x----------x--x-|----------x--x-------x--x--|
|-----------------||--12-12-12-(12)-12-12-12-|-(12)-12-12-12-(12)-12-12--|
|-----------------||-------------------------|---------------------------|
|-----------------||-------------------------|---------------------------|
|-0-4-4-4-(4)-4---||-------------------------|---------------------------|


|--------------------------------|
|---9------9------(9)--9-------9-|
|--12b13--12b13==(12)r---12b13---|
|--------------------------------|
|--------------------------------|
|--------------------------------|


|----------------------------------7-|-(7)-----------------|
|-(9)--9--9-----9-------(9)---9--9-7-|-(7)---------------5-|
|-----12-12b13-12pb13==(12)r-12-12-8-|-(8)-----8-(8)-----6-|
|----------------------------------9-|-(9)-9-9-9-(9)-9-9-7-|
|------------------------------------|-----9-9-9-(9)-9-9-7-|
|------------------------------------|-----7-7-7-(7)-7-7-5-|


                                         D.S. al Coda
|--------------------|-------------2-2-|-0-0-0-0------||
|-(5)----------------|-----2-2-----2-2-|-0-0-0-0--4---||
|-(6)----------------|-1-1-2-2-1-1-2-2-|-1-1-1-1--3---||
|-(7)-7-7-7-(7)-7-7--|-2-2-2-2-2-2-2-2-|-2-2-2-2--5---||
|-(7)-7-7-7-(7)-7-7--|-2-2-----2-2-----|-2-2-2-2--6---||
|-(5)-5-5-5-(5)-5-5--|-0-0-----0-0-----|-0-0-0-0------||


                    Outro
  &
  PM-------------------------------------------------|
|-----------------||-----------------|-----------------|
|-----------------||-----------------|-----------------|
|-----------------||-----------------|-----------------|
|-----------------||-----------------|-----------------|
|---------2-2-4-2-||---------2-2-4-2-|---------2-2-4-2-|
|-0-0-4-4---------||-0-0-4-4---------|-0-0-4-4---------|


    PM------------------------------------------------------------------|
||------------------|-----------------|-----------------|------------------||
||o-----------------|-----------------|-----------------|-----------------o||
||------------------|-----------------|-----------------|------------------||
||------------------|-----------------|-----------------|------------------||
||o---------2-2-4-2-|---------2-2-4-2-|---------2-2-4-2-|---------2-2-4-2-o||
||--0-0-4-4---------|-0-0-4-4---------|-0-0-4-4---------|-0-0-4-4----------||



***************************************************************************************
* Generated using Power Tab Editor by Brad Larsen - http://powertab.guitarnetwork.org *
***************************************************************************************
Comments