Elvis Presley - Jailhouse Rock Chords & Tabs

 

Jailhouse Rock Chords & Tabs

Elvis Presley Chords & Tabs

Version: 2 Type: Tab 0 ratings
1 star 2 stars 3 stars 4 stars 5 stars
comments

Jailhouse Rock Tab

this is the old Elvis song that they play on the nestea brisk iced tea commercial.

e-------------------------------------------------------------------------------
B-------------------------------------------------------------------------------
G-------------------------------------------------------------------------------
D--4--5-----4--5-----4--5-----4--5----------------------------------------------
A--4--5-----4--5-----4--5-----4--5----------------------------------------------
E--4--5-----4--5-----4--5-----4--5----------------------------------------------
[ Tab from: http://www.guitartabs.cc/tabs/e/elvis_presley/jailhouse_rock_tab_ver_2.html ]
or if you wanna play it higher then play this:

e--2--3-----2--3-----2--3-----2--3----------------------------------------------
B--2--3-----2--3-----2--3-----2--3----------------------------------------------
G--2--3-----2--3-----2--3-----2--3----------------------------------------------
D-------------------------------------------------------------------------------
A-------------------------------------------------------------------------------
E-------------------------------------------------------------------------------

just play one of those a few times and you should be OK
Comments