Elvis Presley - Dont Be Cruel Chords & Tabs

 

Dont Be Cruel Chords & Tabs

Elvis Presley Chords & Tabs

Version: 1 Type: Tab 0 ratings
1 star 2 stars 3 stars 4 stars 5 stars
comments

Dont Be Cruel Tab

this is how you play it(i think )lol
e------------------------------------------------------|
B------------------------------------------------------|
g------------------------------------------------------|
D------------------------------------------------------|
A---------2-4-2-------2-4-2--------2-4-2---------------|
E-0-0-3p4------0-0-3p4------0-0-3p4-----0-0-3p4--------|

[ Tab from: http://www.guitartabs.cc/tabs/e/elvis_presley/dont_be_cruel_tab.html ]
e------------------------------------------------------|
B------------------------------------------------------|
g------------------------------------------------------|
D------------------2-4-2--------2-4-0------------------|
A-2-4-2-----0-0-3p4------0-0-3p4-------------2-4-2-----|
E-------------------------------------0-0-3p4----------|

e------------------------------------------------------|
B------------------------------------------------------|
g------------------------------------------------------|
D-----------------------2-4-2-------2-4-0--------------|
A---------2-4-2--2-2-3p4-----0-0-3p4------------2-4-2--|
E--0-0-3p4-------------------------------0-0-3p4-----0-|
Comments