Elton John - Your Song Chords & Tabs

 

Your Song Chords & Tabs

Elton John Chords & Tabs

Version: 1 Type: Tab 2 ratings
1 star 2 stars 3 stars 4 stars 5 stars
comments

Your Song Tab

   
                                        Your Song                                         


                                    © 1969 - Words and Music by Elton John & Bernie Taupin
Guitar (fingerstyle) (Capo 1)
Steady fingerstyle rhythm
Approx. 129bpm



     D                        G                        A/D      A7/D           
E||--2-------------2-------|--3-------------3-------|--0--------3-------------|
B||--3-------3--------3----|--3----3--0--------3----|--2--2--------------2----|
G||--2----2----------------|--0---------------------|--2-----2--------2-------|
D||--0----------0----------|--0----------0----------|--0-----------0----------|
A||------------------------|------------------------|-------------------------|
E||------------------------|------------------------|-------------------------|


  G                         D                        Gmaj7                  
--3--------3-------------|--2---------------------|--2-------2--------2----|
--3--0--------------3----|--3-------3--------3----|--0---------------------|
--0-----0--------0-------|--2----2--------2-------|--0----0--------0-------|
--0-----------0----------|--0----------0----------|--0----------0----------|
-------------------------|------------------------|------------------------|
-------------------------|------------------------|------------------------|


  A                        F#m                      Bm                     
--0-------0--------0----|--2-------2--------2----|--2-------2--------2----|
--2---------------------|--2---------------------|--3---------------------|
--2----2--------2-------|--2----2--------2-------|--4----4--------4-------|
------------------------|--4----------4----------|------------------------|
--0----------0----------|------------------------|--2----------2----------|
------------------------|------------------------|------------------------|


  Bm/A                     Bm/G#                    G6                     
--2-------2--------2----|--2-------2--------2----|--0-------0--------0----|
--3---------------------|--3---------------------|--0---------------------|
--4----4--------4-------|--4----4--------4-------|--0----0--------0-------|
------------------------|------------------------|--0----------0----------|
--0----------0----------|------------------------|------------------------|
------------------------|--4----------4----------|------------------------|


  D                        A                        F#7                    
--2---------------------|--0-------0--------0----|--2-------2--------2----|
--3-------3--------3----|--2---------------------|--2---------------------|
--2----2--------2-------|--2----2--------2-------|--3----3--------3-------|
--0----------0----------|------------------------|--4----------4----------|
------------------------|--0----------0----------|------------------------|
------------------------|------------------------|------------------------|


  Bm                       D                        Em7                    
--2-------2--------2----|--2---------------------|--0---------------------|
--3---------------------|--3-------3--------3----|--3-------3--------3----|
--4----4--------4-------|--2----2--------2-------|--0----0--------0-------|
------------------------|--0----------0----------|------------------------|
--2----------2----------|------------------------|------------------------|
------------------------|------------------------|--0----------0----------|


  G                        A                         Asus4          A         
--3-------3--------3----|--0----------0--------0--|--0--------0--------------|
--3---------------------|--2-------2--------2-----|--3-----3--------2-----2--|
--0----0--------0-------|--2----2--------2--------|--2--2--------2-----2-----|
------------------------|--2----------------------|--------------------------|
------------------------|--0----------------------|--0-----------------------|
--3----------3----------|-------------------------|--------------------------|


  D                        Gmaj7                    A                      
--2---------------------|--2-------2--------2----|--0-------0--------0----|
--3-------3--------3----|--0---------------------|--2---------------------|
--2----2--------2-------|--0----0--------0-------|--2----2--------2-------|
--0----------0----------|--0----------0----------|------------------------|
------------------------|------------------------|--0----------0----------|
------------------------|------------------------|------------------------|


  F#m                      Bm                       Bm/A                   
--2-------2--------2----|--2-------2--------2----|--2-------2--------2----|
--2---------------------|--3---------------------|--3---------------------|
--2----2--------2-------|--4----4--------4-------|--4----4--------4-------|
--4----------4----------|------------------------|------------------------|
------------------------|--2----------2----------|--0----------0----------|
------------------------|------------------------|------------------------|


  Bm/A                     G6                       D                      
--2-------2--------2----|--0-------0--------0----|--2---------------------|
--3---------------------|--0---------------------|--3-------3--------3----|
--4----4--------4-------|--0----0--------0-------|--2----2--------2-------|
------------------------|--0----------0----------|--0----------0----------|
------------------------|------------------------|------------------------|
--4----------4----------|------------------------|------------------------|


  A                        F#7                      Bm                     
--0-------0--------0----|--2-------2--------2----|--2-------2--------2----|
--2---------------------|--2---------------------|--3---------------------|
--2----2--------2-------|--3----3--------3-------|--4----4--------4-------|
------------------------|--4----------4----------|------------------------|
--0----------0----------|------------------------|--2----------2----------|
------------------------|------------------------|------------------------|


  D                        Em7                      G                      
--2---------------------|--0---------------------|--3-------3--------3----|
--3-------3--------3----|--3-------3--------3----|--0---------------------|
--2----2--------2-------|--0----0--------0-------|--0----0--------0-------|
--0----------0----------|------------------------|------------------------|
------------------------|------------------------|------------------------|
------------------------|--0----------0----------|--3----------3----------|


  D                Dsus4        D                  A                      
--2-------------2--3----|--3----2----------2----|--0-------0--------0----|
--3-------3--------3----|--3--------------------|--2---------------------|
--2----2----------------|--2------------2-------|--2----2--------2-------|
--0----------0----------|--0---------0----------|------------------------|
------------------------|-----------------------|--0----------0----------|
------------------------|-----------------------|------------------------|


  Bm                       Em7                      G                      
--2-------2--------2----|--0---------------------|--3-------3--------3----|
--3---------------------|--3-------3--------3----|--0---------------------|
--4----4--------4-------|--0----0--------0-------|--0----0--------0-------|
------------------------|------------------------|------------------------|
--2----------2----------|------------------------|------------------------|
------------------------|--0----------0----------|--3----------3----------|


  A                        Bm                       Em7                    
--0-------0--------0----|--2-------2--------2----|--0---------------------|
--2---------------------|--3---------------------|--3-------3--------3----|
--2----2--------2-------|--4----4--------4-------|--0----0--------0-------|
------------------------|------------------------|------------------------|
--0----------0----------|--2----------2----------|------------------------|
------------------------|------------------------|--0----------0----------|


  G                        Bm                       Bm/A                   
--3-------3--------3----|--2-------2--------2----|--2-------2--------2----|
--0---------------------|--3---------------------|--3---------------------|
--0----0--------0-------|--4----4--------4-------|--4----4--------4-------|
------------------------|------------------------|------------------------|
------------------------|--2----------2----------|--0----------0----------|
--3----------3----------|------------------------|------------------------|


  Bm/G#                    G                                      D                      
--2-------2--------2----|--3----------------|------------------|--2---------------------|
--3---------------------|--3----------------|------------------|--3-------3--------3----|
--4----4--------4-------|--0----------------|------------------|--2----2--------2-------|
------------------------|--0----------------|------------------|--0----------0----------|
------------------------|--2----------------|------------------|------------------------|
--4----------4----------|--3----------------|------------------|------------------------|


  Em7                      G                        A                       
--0---------------------|--3-------3--------3----|--0----------0--------0--|
--3-------3--------3----|--0---------------------|--2-------2--------2-----|
--0----0--------0-------|--0----0--------0-------|--2----2--------2--------|
------------------------|------------------------|--2----------------------|
------------------------|------------------------|--0----------------------|
--0----------0----------|--3----------3----------|-------------------------|


  Asus4          A           D                        G                      
--0--------0--------------|--2-------------2-------|--3-------------3-------|
--3-----3--------2-----2--|--3-------3--------3----|--3----3--0--------3----|
--2--2--------2-----2-----|--2----2----------------|--0---------------------|
--------------------------|--0----------0----------|--0----------0----------|
--0-----------------------|------------------------|------------------------|
--------------------------|------------------------|------------------------|


  A/D      A7/D             G                         D                      
--0--------3-------------|--3--------3-------------|--2---------------------|
--2--2--------------2----|--3--0--------------3----|--3-------3--------3----|
--2-----2--------2-------|--0-----0--------0-------|--2----2--------2-------|
--0-----------0----------|--0-----------0----------|--0----------0----------|
-------------------------|-------------------------|------------------------|
-------------------------|-------------------------|------------------------|

[ Tab from: http://www.guitartabs.cc/tabs/e/elton_john/your_song_tab.html ]
  Gmaj7                    A                        F#m                    
--2-------2--------2----|--0-------0--------0----|--2-------2--------2----|
--0---------------------|--2---------------------|--2---------------------|
--0----0--------0-------|--2----2--------2-------|--2----2--------2-------|
--0----------0----------|------------------------|--4----------4----------|
------------------------|--0----------0----------|------------------------|
------------------------|------------------------|------------------------|


  Bm                       Bm/A                     Bm/A                   
--2-------2--------2----|--2-------2--------2----|--2-------2--------2----|
--3---------------------|--3---------------------|--3---------------------|
--4----4--------4-------|--4----4--------4-------|--4----4--------4-------|
------------------------|------------------------|------------------------|
--2----------2----------|--0----------0----------|------------------------|
------------------------|------------------------|--4----------4----------|


  Gmaj7                    D                        A                      
--2--2-------2--0-------|--2---------------------|--0-------0--------0----|
--0--0----3--3--2--3----|--3-------3--------3----|--2---------------------|
--0--0----2-------------|--2----2--------2-------|--2----2--------2-------|
------------------------|--0----------0----------|------------------------|
------------------------|------------------------|--0----------0----------|
--3--3------------------|------------------------|------------------------|


  F#7                      Bm                          D                      
--0-------0--------0----|--7--------7h-10--9--7-----|--5---------------------|
--7----7--------7-------|--7-----7---------------7--|--7-------7--------7----|
--9---------------------|--7--7---------------------|--7----7--------7-------|
--8----------8----------|--9------------------------|--0----------0----------|
------------------------|---------------------------|------------------------|
------------------------|---------------------------|------------------------|


  Em7                      G                        A                       
--7---------------------|--7---------------------|--0----------0--------0--|
--8-------8--------8----|--8-------8--------8----|--2-------2--------2-----|
--7----7--------7-------|--7----7--------7-------|--2----2--------2--------|
------------------------|--5----------5----------|--2----------------------|
------------------------|------------------------|--0----------------------|
--0----------0----------|------------------------|-------------------------|


  Asus4      A           D                        Gmaj7                  
----------------------|--5---------------------|--7-------7--------7----|
--3--3----3p-2--------|--7-------7--------7----|--7---------------------|
--2--2----2--2--------|--7----7--------7-------|--7----7--------7-------|
----------------------|--0----------0----------|--5----------5----------|
--0----------0--------|------------------------|------------------------|
----------------------|------------------------|------------------------|


  A                        F#m                      Bm                     
--5-------5--------5----|--5-------5--------5----|--2-------2--------2----|
--5---------------------|--7---------------------|--3---------------------|
--6----6--------6-------|--6----6--------6-------|--4----4--------4-------|
------------------------|--4----------4----------|------------------------|
--0----------0----------|------------------------|--2----------2----------|
------------------------|------------------------|------------------------|


  Bm/A                     Bm/A                     Gmaj7                  
--2-------2--------2----|--2-------2--------2----|--2--2-------2--0-------|
--3---------------------|--3---------------------|--0--0----3--3--2--3----|
--4----4--------4-------|--4----4--------4-------|--0--0----2-------------|
------------------------|------------------------|------------------------|
--0----------0----------|------------------------|------------------------|
------------------------|--4----------4----------|--3--3------------------|


  D                        A                        F#7                    
--5---------------------|--5-------5--------5----|--0-------0--------0----|
--7-------7--------7----|--5---------------------|--7----7--------7-------|
--7----7--------7-------|--6----6--------6-------|--9---------------------|
--0----------0----------|--7---------------------|--8----------8----------|
------------------------|--0----------0----------|------------------------|
------------------------|------------------------|------------------------|


  Bm                          D                        Em7                    
--7--------7h-10--9--7-----|--5---------------------|--7---------------------|
--7-----7---------------7--|--7-------7--------7----|--8-------8--------8----|
--7--7---------------------|--7----7--------7-------|--7----7--------7-------|
--9------------------------|--0----------0----------|------------------------|
---------------------------|------------------------|------------------------|
---------------------------|------------------------|--0----------0----------|


  G                        D                Dsus4        D                
--7---------------------|--2-------------2--3----|--3----2----------2----|
--8-------8--------8----|--3-------3--------3----|--3--------------------|
--7----7--------7-------|--2----2----------------|--2------------2-------|
--5----------5----------|--0----------0----------|--0---------0----------|
------------------------|------------------------|-----------------------|
------------------------|------------------------|-----------------------|


  A                        Bm                       Em7                    
--0-------0--------0----|--2-------2--------2----|--0---------------------|
--2---------------------|--3---------------------|--3-------3--------3----|
--2----2--------2-------|--4----4--------4-------|--0----0--------0-------|
------------------------|------------------------|------------------------|
--0----------0----------|--2----------2----------|------------------------|
------------------------|------------------------|--0----------0----------|


  G                        A                        Bm                     
--3-------3--------3----|--0-------0--------0----|--2-------2--------2----|
--0---------------------|--2---------------------|--3---------------------|
--0----0--------0-------|--2----2--------2-------|--4----4--------4-------|
------------------------|------------------------|------------------------|
------------------------|--0----------0----------|--2----------2----------|
--3----------3----------|------------------------|------------------------|


  Em7                      G                        Bm                     
--0---------------------|--3-------3--------3----|--2-------2--------2----|
--3-------3--------3----|--0---------------------|--3---------------------|
--0----0--------0-------|--0----0--------0-------|--4----4--------4-------|
------------------------|------------------------|------------------------|
------------------------|------------------------|--2----------2----------|
--0----------0----------|--3----------3----------|------------------------|


  Bm/A                     Bm/G#                    G                                    
--2-------2--------2----|--2-------2--------2----|--3----------------|------------------|
--3---------------------|--3---------------------|--3----------------|------------------|
--4----4--------4-------|--4----4--------4-------|--0----------------|------------------|
------------------------|------------------------|--0----------------|------------------|
--0----------0----------|------------------------|--2----------------|------------------|
------------------------|--4----------4----------|--3----------------|------------------|


  D                        Em7                      G                      
--2---------------------|--0---------------------|--3-------3--------3----|
--3-------3--------3----|--3-------3--------3----|--0---------------------|
--2----2--------2-------|--0----0--------0-------|--0----0--------0-------|
--0----------0----------|------------------------|------------------------|
------------------------|------------------------|------------------------|
------------------------|--0----------0----------|--3----------3----------|


  A                         Asus4          A           Bm                     
--0----------0--------0--|--0--------0--------------|--2-------2--------2----|
--2-------2--------2-----|--3-----3--------2-----2--|--3---------------------|
--2----2--------2--------|--2--2--------2-----2-----|--4----4--------4-------|
--2----------------------|--------------------------|------------------------|
--0----------------------|--0-----------------------|--2----------2----------|
-------------------------|--------------------------|------------------------|


  Bm/A                     Bm/G#                    G                                    
--2-------2--------2----|--2-------2--------2----|--3----------------|------------------|
--3---------------------|--3---------------------|--3----------------|------------------|
--4----4--------4-------|--4----4--------4-------|--0----------------|------------------|
------------------------|------------------------|--0----------------|------------------|
--0----------0----------|------------------------|--2----------------|------------------|
------------------------|--4----------4----------|--3----------------|------------------|


  D                        Em7                      G                      
--2---------------------|--0---------------------|--3-------3--------3----|
--3-------3--------3----|--3-------3--------3----|--0---------------------|
--2----2--------2-------|--0----0--------0-------|--0----0--------0-------|
--0----------0----------|------------------------|------------------------|
------------------------|------------------------|------------------------|
------------------------|--0----------0----------|--3----------3----------|


  D                        G                        A/D      A7/D           
--2-------------2-------|--3-------------3-------|--0--------3-------------|
--3-------3--------3----|--3----3--0--------3----|--2--2--------------2----|
--2----2----------------|--0---------------------|--2-----2--------2-------|
--0----------0----------|--0----------0----------|--0-----------0----------|
------------------------|------------------------|-------------------------|
------------------------|------------------------|-------------------------|


  G                                                               
--3--------3-------------|--2----------------|------------------||
--3--0--------------3----|--3----------------|------------------||
--0-----0--------0-------|--2----------------|------------------||
--0-----------0----------|--0----------------|------------------||
-------------------------|-------------------|------------------||
-------------------------|-------------------|------------------||


Comments