Elton John - Sorry Seems To Be The Hardest Word Chords & Tabs

 

Sorry Seems To Be The Hardest Word Chords & Tabs

Elton John Chords & Tabs

Version: 1 Type: Tab 0 ratings
1 star 2 stars 3 stars 4 stars 5 stars
comments

Sorry Seems To Be The Hardest Word Tab

   
##################################################################################
# This file is the author's own work and represents their interpretation of the  #
# song. You may only use this file for private study, scholarship, or research.  #
##################################################################################

Elton John - Sorry Seems To Be the Hardest Word


Intro:
------

     Gm7 Gm6     G              Eb               Cm
e:----------------------------|----3---3---------3--3--------|
B:---3---3---3---3------------|----4--4----3-4---4--4--------|
G:---3---3---3---3---3p2--0---|----3--3----------5--5--------|
D:---3---2---1---0----------0-|-1----------------5--5--1p0---|
A:---x---x---x---x------------|------------------3--3------3-|
E:---3---3---3---3------------|------------------------------|


                                     
[ Tab from: http://www.guitartabs.cc/tabs/e/elton_john/sorry_seems_to_be_the_hardest_word_tab.html ]
    Cm/A             D            Gm7
e:--------------------------------3--|
B:--4-4---4--4--4----3------------3--|
G:--5-5---5--5--5----2------------3--|
D:--5-5---4--5--7----0------------3--|
A:--0-0---0--0--0--------3--0--1--5--|
E:--------------------------------3--|


Verse 1
Verse 2
Chorus
Solo:
-----
Gm  Cm   F   Bbsus4 Bb   Cm D  x2
//  //   //     /    /    /

Chorus 2:
---------
Same as 1st Chorus.

Verse 2


End by Playing the Intro again.


**************************************************************************************************************

**************************************************************************************************************


Someone Saved My Life Tonight
Elton John
1975
Created by: Randy Mosier  rmosier@click1.net

Intro: (Do Twice)  Capo 1st Fret

E[--3—-3------------------------0—-0--------------------]
B[--0—-0------------------------1—-1--------------------]
G[--0--0-----------0------------0—-0--------------------]
D[--0—-0--0--2—-4-----4—--2—-0--2—-2-----0—-2—-3—-2------]
A[--2—-2------------------------3—-3—-3--------------3--]
E[--3—-3------------------------3—-3--------------------]
Comments