Elton John - Can You Feel The Love Tonight Chords & Tabs

 

Can You Feel The Love Tonight Chords & Tabs

Elton John Chords & Tabs

Version: 2 Type: Tab 0 ratings
1 star 2 stars 3 stars 4 stars 5 stars
comments

Can You Feel The Love Tonight Tab

Can You Feel The Love Tonight by Elton John...

I think this is correct... sure, this is just the ref. but it sounds good!!
Its is a nice love song!! So lover boys, play it for your girls ;)
[ Tab from: http://www.guitartabs.cc/tabs/e/elton_john/can_you_feel_the_love_tonight_tab_ver_2.html ]
E-1-----1----------------------------------------------------------------|
H---3-1---3---------4-3-1---------6-3-------4-3-1-3-1--------------------|
G-----------3-----3-------0-3-3-------3-3-0------------------------------|
D-------------5-3---------------3----------------------------------------|
A------------------------------------------------------------------------|
E------------------------------------------------------------------------|

E-1-----1----------------------------------------------------------------|
H---3-1---3---------4-3-1---------6-3-------4-3-1------------------------|
G-----------3-----3-------0-3-3-------3-3-0-------3-3--------------------|
D-------------5-3---------------3----------------------------------------|
A------------------------------------------------------------------------|
E------------------------------------------------------------------------|

Thomas, 16 years, Norway
Comments