Elton John - Can You Feel The Love Tonight Chords & Tabs

 

Can You Feel The Love Tonight Chords & Tabs

Elton John Chords & Tabs

Version: 1 Type: Tab 4 ratings
1 star 2 stars 3 stars 4 stars 5 stars
comments

Can You Feel The Love Tonight Tab

e----------------------------------------------------0--1-0-0---
b----0-1-3-1-------0-1-3-1----------------0-1-1-3-1--------3-1-3
g---2--------0----2---------------------2----------0------------
d---------------------------------------------------------------
a---------------------------------------------------------------
e---------------------------------------------------------------

e-------------------------------------3-0---1-0-0---------------
b---0-1-3-1-------0-1-3-1-1-----0-1------1-----3-3--------------
g--2-------0-----2-------------2---0-0----2--------0------------
d---------------------------------------------------------------
a---------------------------------------------------------------
e---------------------------------------------------------------

e---3(hold)----------0---3----0(hold)-------------------1-0-----
b---------------------3---------------------1----------1---3----
g---------------------------------------------2-------0---------
d---------------------------------------------------------------
a---------------------------------------------------------------
e---------------------------------------------------------------
[ Tab from: http://www.guitartabs.cc/tabs/e/elton_john/can_you_feel_the_love_tonight_tab.html ]
e--------------3--0--------------1--0-----0--------3(hold)--0--3
b-------0-1-----3---1---1-1------------3----3----------------3--
g------2---0-0-------------2---------------------2--------------
d---------------------------------------------------------------
a---------------------------------------------------------------
e---------------------------------------------------------------

e---0----------1-0--------------------3-0-----------1--0--------
b----1--------1---3-----------0-1------3-1--1-1-----------3--1-1
g-----2-0---0----------------2---0-0------------2-0-------------
d--------3------------------------------------------------------
a---------------------------------------------------------------
e---------------------------------------------------------------
Start back at the beginning then play this
e----------------3---0-----------1--0---------------------------
b------0--1---------3-1--1-1----------3-1--1--------------------
g----2------0--0-------------2-0--------------------------------
d---------------------------------------------------------------
a---------------------------------------------------------------
e---------------------------------------------------------------
This is 100% correct
Comments