Elmer Bernstein - The Magnificent Seven Chords & Tabs

 

The Magnificent Seven Chords & Tabs

Elmer Bernstein Chords & Tabs

Version: 1 Type: Bass Tab 0 ratings
1 star 2 stars 3 stars 4 stars 5 stars
comments

The Magnificent Seven Bass Tab

Title: The Magnificent Seven
Tabbed by: " Cuth Bert NgptaN "

Bright

 x - mute (no sound)

 Intro:

G|-3-x------|---33-----|
D|-----11-3-|-x---11-3-|  Repeat "once" then.....
A|----------|----------|
E|----------|----------|

  Verse 1 :
 .....
G|----------|----------|----------|----------|---33-3-3-|-1-x-11-1-|
D|-----11-3-|-x--------|-1-x-11-1-|-----11-3-|-x--------|----------|
A|-1-x------|---11-1-1-|----------|-1-x------|----------|----------|
E|----------|----------|----------|----------|----------|----------|

G|----------|-3-x-33-3-|-0h-----0-|----------|----------|
D|-3h---1-3-|----------|----------|----------|-0h---1-3-| "Repeat intro 
A|----------|----------|----------|-3h-----3-|----------|    twice"
E|----------|----------|----------|----------|----------|
[ Tab from: http://www.guitartabs.cc/tabs/e/elmer_bernstein/the_magnificent_seven_btab.html ]
G|----------|----------|----------|----------|----------|---33-3-3-|
D|-----11-3-|-x--------|-1-x-11-1-|-x-11-1-1-|-----11-3-|-x--------|
A|-1-x------|---11-1-1-|----------|----------|-1-x------|----------|
E|----------|----------|----------|----------|----------|----------|

G|-1-x-11-1-|----------|
D|----------|-3h---3h--| "Repeat intro 
A|----------|----------|     twice"         then....
E|----------|----------|

G|----------|-0-----3h-|----------|-0--------|----------|-3h--33-3-|
D|-0-3h-----|---3-1----|-0-3h-----|---3-1----|-3h---1-3-|----------|
A|----------|----------|----------|-------3h-|----------|----------|
E|----------|----------|----------|----------|----------|----------|

G|-0h-----0-|----------|----------|                 |-3-x------|
D|----------|----------|-0h---1-3-|  "Repeat intro  |----------|
A|----------|-3h-----3-|----------|     twice" then |----------|
E|----------|----------|----------|                 |----------|



 That's it pretty simple....eh!
 Just listen for timing....
 Thanks,   comments >>>>> snowblind_cuth@yahoo.ca
Comments