Elmariachino - Partir Chords & Tabs

 

Partir Chords & Tabs

Elmariachino Chords & Tabs

Version: 1 Type: Tab 0 ratings
1 star 2 stars 3 stars 4 stars 5 stars
comments

Partir Tab

Partir tabs
Ce sont les tabs utilisés pour la chanson "Partir". Pour plus d'infos se referer à la version chords.

Intro:
--0-8-7---------------------------0------------------------|
--------10--8-8-10-10--------------------------------------|
----------------------9---7-5-4-2---2----------------------|
-----------------------------------------------------------|
-----------------------------------------------------------|
-----------------------------------------------------------|


Verse1:
--0-8-7----------------7--------------------7--------------|
--------10-8-------------10-8-----------------10-8---------|
------------------------------10-------------------10-9----|
-----------------------------------------------------------|
------------------7-8---------------7-8-10-----------------|
-------------8-10----------------10------------------------|

[ Tab from: http://www.guitartabs.cc/tabs/e/elmariachino/partir_tab.html ]
----------0------------------------------------------------|
-----------------------------------------------------------|
--7-5-4-2---2----------------------------------------------|
-----------------------------------------------------------|
-----------------------------------------------------------|
-----------------------------------------------------------|


Verse2:
--0-8-7------------------------8-7-------------------------|
--------10--8-8-10-10--------------10--8-8-10--------------|
----------------------9--7--------------------9------------|
---------------------------10------------------------------|
-----------------------------------------------------------|
-------------------------------------------------0---------|


-0-8-7-------------------------8-7----------------------0---|
-------10--8-8-10-10---------------10--8-8-10---------------|
---------------------9—7----------------------9--7-5-4-2--2-|
--------------------------10-9------------------------------|
------------------------------------------------------------|
------------------------------------------------------------|
Comments