Elmariachino - Jess Chords & Tabs

 

Jess Chords & Tabs

Elmariachino Chords & Tabs

Version: 1 Type: Tab 0 ratings
1 star 2 stars 3 stars 4 stars 5 stars
comments

Jess Tab

JESS
This is the first piece of music i compose myself. It is not a hard full of techniques 
but rather a smooth nice to hear melody.

E:----------------------------------------------------------|
B:-----0-1--3-1--0--1-0---------0-1--3-1--0-------------0-1-|
G:-----------------------2-------------------2-0-2----------|
D:----------------------------------------------------------|
A:-0-0----------------------0-0---------------------0-0-----|
E:----------------------------------------------------------|


E:---------------------------------------------------------|
B:--3-1--0--1-0----------0-1--3-1--0-----------------------|
G:---------------2-------------------2-1-2-----------------|
D:---------------------------------------------------------|
A:------------------0-0------------------------------------|
E:---------------------------------------------------------|


E:-0---0-1-0---0---0-0-1-1-3-3-5-5-3-3-1-1-0---0---0-------|
B:-----------3-------------------------------3-------3-1-3-|
G:---------------------------------------------------------|
D:---------------------------------------------------------|
A:---------------------------------------------------------|
E:---------------------------------------------------------|


E:-----------------------------------0---------1-0--0-------|
B:-3-1-0-1---1-0---0---0------------1--------1--------4-1-0-|
G:---------------2-------2-1-2-----2-------2----------------|
D:--------------------------------2------2------------------|
A:-------------------------------0--------------------------|
E:----------------------------------------------------------|

[ Tab from: http://www.guitartabs.cc/tabs/e/elmariachino/jess_tab.html ]
E:-----0-------------------------0----0-1-0---0-1-0--0-----|
B:-------4-1-0-------------0-1-4------------4--------0-----|
G:-------------2-1-----1-2---------------------------1-----|
D:---------------------------------------------------2-----|
A:---------------------------------------------------2-----|
E:-0---------------0----------------0----------------0-----|



E:-0-1-0---0-1-0--0---0-1-0---0--4---1-1---0-0-------------|
B:-------4--------0---------4----4-----1-----0-------------|
G:----------------1--------------5-----2-----1-------------|
D:----------------2--------------6-----3-----2-------------|
A:----------------2--------------6-----3-----2-------------|
E:----------------0--------------4-----1-----0-------------|


E:-0-0-1-1-0-0-------------------------------------------0-|
B:-------------4-4-1-1-0-0---------1-0-1-0---------0-1-4---|
G:-------------------------2-1-2-----------2-2-1-2---------|
D:---------------------------------------------------------|
A:---------------------------------------------------------|
E:---------------------------------------------------------|


E:-0-1-0---------------------------------------------0-----|
B:-------4-1-0---0-1-0---------1-0-1-0---------0-1-4-------|
G:-------------2-------2-1-2-----------2-2-1-2-------------|
D:---------------------------------------------------------|
A:---------------------------------------------------------|
E:---------------------------------------------------------|


E:-0-1-0-----------------------0---0---0-------------------|
B:-------4-1-0---0-1-0---------1---0---1-------------------|
G:-------------2-------2-1-2---2---1---2-------------------|
D:-----------------------------2---2---2-------------------|
A:-----------------------------0---2---0-------------------|
E:---------------------------------0-----------------------|
Comments