Elliott Smith - Southern Belle Chords & Tabs

 

Southern Belle Chords & Tabs

Elliott Smith Chords & Tabs

Version: 1 Type: Tab 0 ratings
1 star 2 stars 3 stars 4 stars 5 stars
comments

Southern Belle Tab

   
NAME: fAWZI e ASH
FROM:  METHUEN,MASS.
TO:

TRY IT THIS WAY SON...ONCE U GET USED TO IT,PLAY ALONG AND DO IT QUICK WITH THE SONG 
IN THE BACKGROUND:::
"your killin a southern belle....(repeat riff below)
"thats all u know how to doooo ooooooo
"that and given other people hell"
"thats what they expect from u toooo '

      D reg.           F barring D(4th string) 3rd fret
                                 g(3rd string) 2nd fret
                                 b(2nd string) 1st fret


|----------------------------------------------------------------|
|----3-3-------------1-1-1-------2-2-----------------------------|
|----2-2--0--3--2-0--2-2-2-------0-0-----------------------------|
|--0----------------3------2---3------2--0-----------------------|
|----------------------------------------------------------------|
|----------------------------------------------------------------|

"well i wouldnt have u, how u want"

|--0------3----2----1----3----2----------------------------------|
|--3------3----3----3----3----3----------------------------------|
|--2-X6---2-X3-2-X2-2-X2-2-X2-2-x2-------------------------------|
|--0------0----0----0----0----0----------------------------------|
|----------------------------------------------------------------|
|----------------------------------------------------------------|

chorus no lyrics there after the pre chorus above...(chords)
>>>>>if u listen to the song the strumming is self explanitory>>>
[ Tab from: http://www.guitartabs.cc/tabs/e/elliott_smith/southern_belle_tab.html ]
Bb...A....g....F....A WITH A LITTLE SOLO THINGY BELOW
|-5--3h2------------------------------------|
|---------3---------------------------------|
|-------------------------------------------|
|-------------------------------------------|
|-------------------------------------------|
|-------------------------------------------|


"how come ure now shamed of what u aaaaarrre and sorry that ure the one she gottt.....


Bb x4...Db x4....F x4....Ax4

|----------------------------------------------------------------|
|----3-3-------------1-1-1-------2-2-----------------------------|
|----2-2--0--3--2-0--2-2-2-------0-0-----------------------------|
|--0----------------3------2---3------2--0-----------------------|
|----------------------------------------------------------------|
|----------------------------------------------------------------|


goooooottttttt...cont.........this time its a littl diff.with the bass notes added in 
the 3rd and final verse....
  D    A Bb A g F E.....
|------------------1-------0----------------------------------|
|---3--------------1-------0--------3-LET IT RING...(END)-----|
|---2--------------2-x3----1-X3-----2-------------------------|
|-0----------------3-------2-------0--------------------------|
|------0--1--0-----3-------2----------------------------------|
|---------------3--1-----0-0----------------------------------|


CONTACT VIA EMAIL IF INTERESTED IN ME PRODUCING MORE TABS FOR YAH...THIS ONE ABOVE IS 
1ST IVE DONE ON LINE BY HAND....(FAWZI_ASH@YAHOO.COM)
Comments