Element Eighty - Slackjaw Chords & Tabs

 

Slackjaw Chords & Tabs

Element Eighty Chords & Tabs

Version: 1 Type: Tab 0 ratings
1 star 2 stars 3 stars 4 stars 5 stars
comments

Slackjaw Tab

   
Element eighty - Slackjaw 
 tab


 Element Eighty
  Slackjaw
 
   Drop D Tuning down to C
   Low to High(C-F-Bb-Eb-G-C)   

Tabbed by Alex Oulapour

Legend:
p=pulloff
h=hammer on
~=vibrato
P.M.=palm mute
^=bend

  Verse
E|--------------------------------------------------------------------|
B|--------------------------------------------------------------------|
G|-14~----------------------------------------------------------------|
D|-12~---0--0-0-0---0--0-0-0--0-0-0--0-0-0----------------------------|
A|-11~---0--0-0-0---0--0-0-0--0-0-0--0-0-0----------------------------|
E|-12~---0--0-0-0---0--0-0-0--0-0-0--0-0-0----------------------------|
     P.M.---------------------------------      
  
  Prechorus
E|--------------------------------------------------------------------|
B|--------------------------------------------------------------------|
G|-7-10--8----------------------------------10-8-7--------------------|
D|-7-10--8--1--8h10p8--1-1---1-1--1--8h10p8-10-8-7--0-0---0--7h8p7----|
A|-5--8--6--1--8h10p8--1-1---1-1--1--8h10p8-8--6-5--0-0---0--7h8p7----|
E|----------1--8h10p8--1-1---1-1--1--8h10p8---------0-0---0--7h8p7----|
        P.M.-          ------------                 -------

E|--------------------------------------------------------------------|
B|--------------------------------------------------------------------|
G|----------------------------------------------------------9^--------|
D|-0--0-0--0-0--0--7h8p7--0--3--1-----------------8--8--7---x---------|
A|-0--0-0--0-0--0--7h8p7--0--3--1-----------------8--8--7---7^--------|
E|-0--0-0--0-0--0--7h8p7--0--3--1-----------------8--8--7-------------|
   --------------             Repeat 2x then play
[ Tab from: http://www.guitartabs.cc/tabs/e/element_eighty/slackjaw_tab.html ]
  Chorus
E|----------------------------------------------------------------------------|
B|----------------------------------------------------------------------------|
G|----------------------------------------------------------------------------|
D|-12-12-12-12-15-14--12-10-10-10-10-12-10-8-8-8-8-8-10-8-6-6-6-6-6-11-14-12--|
A|-12-12-12-12-----------10-10-10-10---------8-8-8-8--------6-6-6-6-----------|
E|-12-12-12-12-----------10-10-10-10---------8-8-8-8--------6-6-6-6-----------|
P.M.----------           -----------         -------        -------


E|----------------------------------------------------------------------------|
B|----------------------------------------------------------------------------|
G|----------------------------------------------------------------------------|
D|-12-12-12-12-15-14--12-10-10-10-10-12-10-8-8-8-8-8-10-8-6-6-6-6-6-15-14-12--|
A|-12-12-12-12-----------10-10-10-10---------8-8-8-8--------6-6-6-6-----------|
E|-12-12-12-12-----------10-10-10-10---------8-8-8-8--------6-6-6-6-15-14-----|
P.M.----------           -----------         -------        -------


E|----------------------------------------------------------------------------|
B|----------------------------------------------------------------------------|
G|----------------------------------------------------------------------------|
D|-12-12-12-12-15-14-12-10-10-10-10-12-10-8-8-8-8-8-10-8-6-6-6-6-6-11-14-12---|
A|-12-12-12-12-15-14-12-10-10-10-10-12-10-8-8-8-8-8-10-8-6-6-6-6-6-11-14-12---|
E|-12-12-12-12-15-14-12-10-10-10-10-12-10-8-8-8-8-8-10-8-6-6-6-6-6-11-14-12---|


E|----------------------------------------------------------------------------|
B|----------------------------------------------------------------------------|
G|----------------------------------------------------------------------------|
D|-12-12-12-12-15-14--12-10-10-10-10-12-10-8-8-8-8-8-10-8-6-6-6-6-6-15-14-12--|
A|-12-12-12-12-----------10-10-10-10---------8-8-8-8--------6-6-6-6-----------|
E|-12-12-12-12-----------10-10-10-10---------8-8-8-8--------6-6-6-6-15-14-----|
P.M.----------           -----------         -------        -------


 Bridge
E|--------------------------------------------------------------------|
B|--------------------------------------------------------------------|
G|--------------------------------------------------------------------|
D|-12-12-12-12--10-10-10-10--8-8-8-8--6-6-6-6-11-14-12----------------|
A|-12-12-12-12--10-10-10-10--8-8-8-8--6-6-6-6--x--x--x----------------|
E|-12-12-12-12--10-10-10-10--8-8-8-8--6-6-6-6-11-14-12----------------|
P.M>----------  -----------  -------  -------
Comments