Element Eighty - Broken Promises Chords & Tabs

 

Broken Promises Chords & Tabs

Element Eighty Chords & Tabs

Version: 4 Type: Tab 0 ratings
1 star 2 stars 3 stars 4 stars 5 stars
comments

Broken Promises Tab

Song: Broken Promises
Album: Mercury
Artist: Element Eighty
Tabber: ~Bushore~        Email: bushymaster_87@hotmail.com
Tuning: Drop D

Intro:
e--------------------------|
B--------------------------|
G--------------------------|
D-12-12-12-12-12-12--12----|
A-12-12-12-12-12-12--12----|
D-12-12-12-12-12-12--12----|


Chorus:
----------------------------------------------------------------------|
----------------------------------------------------------------------|
----------------------------------------------------------------------|
12-12-12-12-12-12--12--12--12-15--10---8-8-8-8-8-8--8--8--8-12--7-----|
12-12-12-12-12-12--12--12--12-15--10---8-8-8-8-8-8--8--8--8-12--7-----|
12-12-12-12-12-12--12--12--12-15--10---8-8-8-8-8-8--8--8--8-12--7-----|

----------------------------------------------------------------------|
----------------------------------------------------------------------|
----------------------------------------------------------------------|
12-12-12-12-12-12--12--12--12-15--10---8-8-8-8-8-8--8--8--8--7~~~~~---|
12-12-12-12-12-12--12--12--12-15--10---8-8-8-8-8-8--8--8--8--7~~~~~---|
12-12-12-12-12-12--12--12--12-15--10---8-8-8-8-8-8--8--8--8--7~~~~~---|


Verse:
----------------------------------------------------------------------------|
----------------------------------------------------------------------------|
----------------------------------------------------------------------------|
12-12-12-12-12-12--12--12--12-15-15-10-10--8-8-8-8-8-8--8--8--8-12-12-7-7---|
12-12-12-12-12-12--12--12--12-15-15-10-10--8-8-8-8-8-8--8--8--8-12-12-7-7---|
12-12-12-12-12-12--12--12--12-15-15-10-10--8-8-8-8-8-8--8--8--8-12-12-7-7---|
PM  *  *  *  *  *   *   *   *  *  *  *  *  * * * * * *  *  *  *  *  * * *

----------------------------------------------------------------------------|
----------------------------------------------------------------------------|
----------------------------------------------------------------------------|
12-12-12-12-12-12--12--12--12-15-15-10-10--8-8-8-8-8-8--7--7--7-12-12-7-7---|
12-12-12-12-12-12--12--12--12-15-15-10-10--8-8-8-8-8-8--7--7--7-12-12-7-7---|
12-12-12-12-12-12--12--12--12-15-15-10-10--8-8-8-8-8-8--7--7--7-12-12-7-7---|
 *  *  *  *  *  *   *   *   *  *  *  *  *  * * * * * *  *  *  *  *  * * *

----------------------------------------------------------------------------|
----------------------------------------------------------------------------|
----------------------------------------------------------------------------|
12-12-12-12-12-12--12--12--12-15----10-----8-8-8-8-8-8--8--8--8-12----7-----|
12-12-12-12-12-12--12--12--12-15----10-----8-8-8-8-8-8--8--8--8-12----7-----|
12-12-12-12-12-12--12--12--12-15----10-----8-8-8-8-8-8--8--8--8-12----7-----|
 *  *  *  *  *  *   *   *   *              * * * * * *  *  *  *

----------------------------------------------------------------------------|
----------------------------------------------------------------------------|
----------------------------------------------------------------------------|
12-12-12-12-12-12--12--12--12-15----10-----8-8-8-8-8-8--7~~~~~--------------|
12-12-12-12-12-12--12--12--12-15----10-----8-8-8-8-8-8--7~~~~~--------------|
12-12-12-12-12-12--12--12--12-15----10-----8-8-8-8-8-8--7~~~~~--------------|
 *  *  *  *  *  *   *   *   *              * * * * * *

Chorus:
----------------------------------------------------------------------|
----------------------------------------------------------------------|
----------------------------------------------------------------------|
12-12-12-12-12-12--12--12--12-15--10---8-8-8-8-8-8--8--8--8-12--7-----|
12-12-12-12-12-12--12--12--12-15--10---8-8-8-8-8-8--8--8--8-12--7-----|
12-12-12-12-12-12--12--12--12-15--10---8-8-8-8-8-8--8--8--8-12--7-----|

----------------------------------------------------------------------|
----------------------------------------------------------------------|
----------------------------------------------------------------------|
12-12-12-12-12-12--12--12--12-15--10---8-8-8-8-8-8--8--8--8--7~-------|
12-12-12-12-12-12--12--12--12-15--10---8-8-8-8-8-8--8--8--8--7~-------|
12-12-12-12-12-12--12--12--12-15--10---8-8-8-8-8-8--8--8--8--7~-------|

Post Chorus:
-------|
-------|
-7/19--|
-------|
-5/17--|
-------|

Verse:
----------------------------------------------------------------------------|
----------------------------------------------------------------------------|
----------------------------------------------------------------------------|
12-12-12-12-12-12--12--12--12-15-15-10-10--8-8-8-8-8-8--8--8--8-12-12-7-7---|
12-12-12-12-12-12--12--12--12-15-15-10-10--8-8-8-8-8-8--8--8--8-12-12-7-7---|
12-12-12-12-12-12--12--12--12-15-15-10-10--8-8-8-8-8-8--8--8--8-12-12-7-7---|
PM  *  *  *  *  *   *   *   *  *  *  *  *  * * * * * *  *  *  *  *  * * *

----------------------------------------------------------------------------|
----------------------------------------------------------------------------|
----------------------------------------------------------------------------|
12-12-12-12-12-12--12--12--12-15-15-10-10--8-8-8-8-8-8--7--7--7-12-12-7-7---|
12-12-12-12-12-12--12--12--12-15-15-10-10--8-8-8-8-8-8--7--7--7-12-12-7-7---|
12-12-12-12-12-12--12--12--12-15-15-10-10--8-8-8-8-8-8--7--7--7-12-12-7-7---|
 *  *  *  *  *  *   *   *   *  *  *  *  *  * * * * * *  *  *  *  *  * * *

----------------------------------------------------------------------------|
----------------------------------------------------------------------------|
----------------------------------------------------------------------------|
12-12-12-12-12-12--12--12--12-15----10-----8-8-8-8-8-8--8--8--8-12----7-----|
12-12-12-12-12-12--12--12--12-15----10-----8-8-8-8-8-8--8--8--8-12----7-----|
12-12-12-12-12-12--12--12--12-15----10-----8-8-8-8-8-8--8--8--8-12----7-----|
 *  *  *  *  *  *   *   *   *              * * * * * *  *  *  *
[ Tab from: http://www.guitartabs.cc/tabs/e/element_eighty/broken_promises_tab_ver_4.html ]
----------------------------------------------------------------------------|
----------------------------------------------------------------------------|
----------------------------------------------------------------------------|
12-12-12-12-12-12--12--12--12-15----10-----8-8-8-8-8-8--7~~~~~--------------|
12-12-12-12-12-12--12--12--12-15----10-----8-8-8-8-8-8--7~~~~~--------------|
12-12-12-12-12-12--12--12--12-15----10-----8-8-8-8-8-8--7~~~~~--------------|
 *  *  *  *  *  *   *   *   *              * * * * * *

Chorus:
----------------------------------------------------------------------|
----------------------------------------------------------------------|
----------------------------------------------------------------------|
12-12-12-12-12-12--12--12--12-15--10---8-8-8-8-8-8--8--8--8-12--7-----|
12-12-12-12-12-12--12--12--12-15--10---8-8-8-8-8-8--8--8--8-12--7-----|
12-12-12-12-12-12--12--12--12-15--10---8-8-8-8-8-8--8--8--8-12--7-----|

----------------------------------------------------------------------|
----------------------------------------------------------------------|
----------------------------------------------------------------------|
12-12-12-12-12-12--12--12--12-15--10---8-8-8-8-8-8--8--8--8--7~~~~~---|
12-12-12-12-12-12--12--12--12-15--10---8-8-8-8-8-8--8--8--8--7~~~~~---|
12-12-12-12-12-12--12--12--12-15--10---8-8-8-8-8-8--8--8--8--7~~~~~---|


Solo:                        Tremolo Picking
-----------------------------------------------------------|
--3--5--6--5--8--------------------------------------------|
--5--7--8--7--10-------------------------------------------|
------------------7-----5-3-5---8/7--10^--0--    Strum -0--| very lightly.
---------------------5^-------------------0--          -0--|
------------------------------------------0--          -0--|


Interlude:
--------------------------------------------------------------------------|
--------------------------------------------------------------------------|
--------------------------------------------------------------------------|
12-12-12-12-12-12--12--12-12-15--10--12-12-12-12-12-12--12--12-12-15--10--|
12-12-12-12-12-12--12--12-12-15--10--12-12-12-12-12-12--12--12-12-15--10--|
12-12-12-12-12-12--12--12-12-15--10--12-12-12-12-12-12--12--12-12-15--10--|
PM  *  *  *  *  *  *   *  *  *   *   *  *  *  *  *  *   *  *  *   *   *

--------------------------------------------------------------------------|
--------------------------------------------------------------------------|
--------------------------------------------------------------------------|
12-12-12-12-12-12--12--12-12-15--10--12-12-12-12-12-12--12--12-12-15--10--|
12-12-12-12-12-12--12--12-12-15--10--12-12-12-12-12-12--12--12-12-15--10--|
12-12-12-12-12-12--12--12-12-15--10--12-12-12-12-12-12--12--12-12-15--10--|
PM  *  *  *  *  *  *   *  *  *   *   *  *  *  *  *  *   *  *  *   *   *

--------------------------------------------------------------------------|
--------------------------------------------------------------------------|
--------------------------------------------------------------------------|
12-12-12-12-12-12--12--12-12-15--10--12-12-12-12-12-12--12--12-12-15--10--|
12-12-12-12-12-12--12--12-12-15--10--12-12-12-12-12-12--12--12-12-15--10--|
12-12-12-12-12-12--12--12-12-15--10--12-12-12-12-12-12--12--12-12-15--10--|

----------------------------------------------------------------------|
----------------------------------------------------------------------|
----------------------------------------------------------------------|
12-12-12-12-12-12--12--12-12-15--10--12-12-12-12-12-12--12--12-12-13^-|
12-12-12-12-12-12--12--12-12-15--10--12-12-12-12-12-12--12--12-12-----|
12-12-12-12-12-12--12--12-12-15--10--12-12-12-12-12-12--12--12-12-----|


Verse:
----------------------------------------------------------------------------|
----------------------------------------------------------------------------|
----------------------------------------------------------------------------|
12-12-12-12-12-12--12--12--12-15-15-10-10--8-8-8-8-8-8--8--8--8-12-12-7-7---|
12-12-12-12-12-12--12--12--12-15-15-10-10--8-8-8-8-8-8--8--8--8-12-12-7-7---|
12-12-12-12-12-12--12--12--12-15-15-10-10--8-8-8-8-8-8--8--8--8-12-12-7-7---|
PM  *  *  *  *  *   *   *   *  *  *  *  *  * * * * * *  *  *  *  *  * * *


----------------------------------------------------------------------------|
----------------------------------------------------------------------------|
----------------------------------------------------------------------------|
12-12-12-12-12-12--12--12--12-15-15-10-10--8-8-8-8-8-8--7--7--7-12-12-7-7---|
12-12-12-12-12-12--12--12--12-15-15-10-10--8-8-8-8-8-8--7--7--7-12-12-7-7---|
12-12-12-12-12-12--12--12--12-15-15-10-10--8-8-8-8-8-8--7--7--7-12-12-7-7---|
 *  *  *  *  *  *   *   *   *  *  *  *  *  * * * * * *  *  *  *  *  * * *


----------------------------------------------------------------------------|
----------------------------------------------------------------------------|
----------------------------------------------------------------------------|
12-12-12-12-12-12--12--12--12-15----10-----8-8-8-8-8-8--8--8--8-12----7-----|
12-12-12-12-12-12--12--12--12-15----10-----8-8-8-8-8-8--8--8--8-12----7-----|
12-12-12-12-12-12--12--12--12-15----10-----8-8-8-8-8-8--8--8--8-12----7-----|
 *  *  *  *  *  *   *   *   *              * * * * * *  *  *  *

----------------------------------------------------------------------------|
----------------------------------------------------------------------------|
----------------------------------------------------------------------------|
12-12-12-12-12-12--12--12--12-15----10-----8-8-8-8-8-8--7~~~~~--------------|
12-12-12-12-12-12--12--12--12-15----10-----8-8-8-8-8-8--7~~~~~--------------|
12-12-12-12-12-12--12--12--12-15----10-----8-8-8-8-8-8--7~~~~~--------------|
 *  *  *  *  *  *   *   *   *              * * * * * *


Chorus:
----------------------------------------------------------------------|
----------------------------------------------------------------------|
----------------------------------------------------------------------|
12-12-12-12-12-12--12--12--12-15--10---8-8-8-8-8-8--8--8--8-12--7-----|
12-12-12-12-12-12--12--12--12-15--10---8-8-8-8-8-8--8--8--8-12--7-----|
12-12-12-12-12-12--12--12--12-15--10---8-8-8-8-8-8--8--8--8-12--7-----|

----------------------------------------------------------------------|
----------------------------------------------------------------------|
----------------------------------------------------------------------|
12-12-12-12-12-12--12--12--12-15--10---8-8-8-8-8-8--8--8--8--7~~~~~---|
12-12-12-12-12-12--12--12--12-15--10---8-8-8-8-8-8--8--8--8--7~~~~~---|
12-12-12-12-12-12--12--12--12-15--10---8-8-8-8-8-8--8--8--8--7~~~~~---|
Comments