Element Eighty - Broken Promises Chords & Tabs

 

Broken Promises Chords & Tabs

Element Eighty Chords & Tabs

Version: 3 Type: Tab 0 ratings
1 star 2 stars 3 stars 4 stars 5 stars
comments

Broken Promises Tab

   
Element Eighty - Broken Promises
Drop C#
* = Blunt
Made by: melon_head_66@hotmail.com

Order:

Intro
Main riff/chorus
Verse
Main riff/chorus
After chorus riff
Verse
Main riff/ chorus
Interlude
Verse
Main riff/chorus


Intro
|----------------|
|----------------|
|-6-6-6-6-6-6--6-|
|-6-6-6-6-6-6--6-|
|-4-4-4-4-4-4--4-|
|----------------|

Main riff/ chorus
|------------------------------------------------------------|
|------------------------------------------------------------|
|-6-6-6-6-6-6--6--6--6-9--------------------------6----------|
|-6-6-6-6-6-6--6--6-6-9-9---7-7-7-7-7-7--7--7-7-6-6--------|
|-4-4-4-4-4-4--4--4-4-7-9---7-7-7-7-7-7-7--7-7-4-6--------|
|------------------------7---5-5-5-5-5-5--5--5--5---4--------|

|------------------------------------------------------------|
|------------------------------------------------------------|
|-6-6-6-6-6-6--6--6--6-9-------------------------------------|
|-6-6-6-6-6-6--6--6-6-9-9---7-7-7-7-7-7--7--7-7-6----------|
|-4-4-4-4-4-4--4--4-4-7-9---7-7-7-7-7-7-7--7-7-6----------|
|------------------------7---5-5-5-5-5-5--5--5--5-4----------|

Verse- p/m
|------------------------------------------------------------|
|------------------------------------------------------------|
|-6-6-6-6-6-6--6--6--6-9-9---------------------------6-6-----|
|-6-6-6-6-6-6--6--6-6-9-9-9-9--7-7-7-7-7-7--7--7-7-6-6-6-6-|
|-4-4-4-4-4-4--4--4-4-7-7-9-9--7-7-7-7-7-7-7--7-7-4-4-6-6-|
|--------------------------7-7--5-5-5-5-5-5--5--5--5-----4-4-|
  * * * * * *  *  *  * * * * *  * * * * * *  * * * * * * * *
[ Tab from: http://www.guitartabs.cc/tabs/e/element_eighty/broken_promises_tab_ver_3.html ]
|------------------------------------------------------------|
|------------------------------------------------------------|
|-6-6-6-6-6-6--6--6--6-9-9---------------------------6-6-----|
|-6-6-6-6-6-6--6--6-6-9-9-9-9--7-7-7-7-7-7--7--7-7-6-6-6-6-|
|-4-4-4-4-4-4--4--4-4-7-7-9-9--7-7-7-7-7-7-7--7-7-4-4-6-6-|
|--------------------------7-7--5-5-5-5-5-5--5--5--5-----4-4-|
  * * * * * *  *  *  * * * * *  * * * * * *  * * * * * * * *

|------------------------------------------------------------|
|------------------------------------------------------------|
|-6-6-6-6-6-6--6--6--6-9-----------------------------6-------|
|-6-6-6-6-6-6--6--6-6-9---9----7-7-7-7-7-7--7--7-7-6---6---|
|-4-4-4-4-4-4--4--4-4-7---9----7-7-7-7-7-7-7--7-7-4---6---|
|--------------------------7----5-5-5-5-5-5--5--5--5-----4---|
  * * * * * *  *  *  *          * * * * * *  * * * * 

|------------------------------------------------------------|
|------------------------------------------------------------|
|-6-6-6-6-6-6--6--6--6-9-------------------------------------|
|-6-6-6-6-6-6--6--6-6-9---9----7-7-7-7-7-7--6--------------|
|-4-4-4-4-4-4--4--4-4-7---9----7-7-7-7-7-7-6--------------|
|--------------------------7----5-5-5-5-5-5--4---------------|
  * * * * * *  *  *  *          * * * * * *  

After chorus riff.

|-------|
|-------|
|-7/19--|
|-X/X---|
|-5/17--|
|-------|



Interlude                      
|------------------------------------------------------------|
|------------------------------------------------------------|
|-7---9-10-9-12-7-7-7---12-9-15/15/15/15/15/15--1417-------|
|-X---X-X--X-X--X-X-X---X--X--X--X--X--X--X--X---X--X-----10~|
|-5---7-8--7-10-5-5-5---10-8-13/13/13/13/13/13--1215----10~|
|---------------------------------------------------------12~|
	        *
Comments