Elemeno P - Urban Getaway Chords & Tabs

 

Urban Getaway Chords & Tabs

Elemeno P Chords & Tabs

Version: 1 Type: Tab 0 ratings
1 star 2 stars 3 stars 4 stars 5 stars
comments

Urban Getaway Tab

Title - Urban Getaway
Artist - Elemeno P
Album - Love and Disrespect

This is an awesome NZ song by Elemeno P, just listen to it to get the 
rythm right.

go to www.nzmusic.com or email me (mike_crozier@hotmail.com) for more info if you want

intro:
|--------0--------0--------0-------------------------0-------0-------0--
|------0---0----0---0----0-------------------------0---0---0---0---0----
|---13-------13-------13-----13--14--13--11--13--9-------9-------9------
|-----------------------------------------------------------------------
|-----------------------------------------------------------------------
|-----------------------------------------------------------------------

 -----------------------|
 -----------------------|
 --11h13--11--9--8--9---|
 -----------------------|
 -----------------------|
 -----------------------|


verse:
(play 3 times....)
|---7---7-7---7-7---7-7------4---4-4------5---5-5--------------|
|---9---9-9---9-9---9-9------4---4-4------5---5-5--------------|
|---9---9-9---9-9---9-9------4---4-4------6---6-6--------------|
|---9---9-9---9-9---9-9------6---6-6------7---7-7--------------|
|---7---7-7---7-7---7-7------6---6-6------7---7-7--------------|
|---0---0-0---0-0---0-0------4---4-4------5---5-5--------------|
[ Tab from: http://www.guitartabs.cc/tabs/e/elemeno_p/urban_getaway_tab.html ]
(and then the 4th time...)
|---7---7-7---7-7---7-7------4---4-4------5---5-5------5-------|
|---9---9-9---9-9---9-9------4---4-4------5---5-5------5-------|
|---9---9-9---9-9---9-9------4---4-4------6---6-6------5-------|
|---9---9-9---9-9---9-9------6---6-6------7---7-7------7-------|
|---7---7-7---7-7---7-7------6---6-6------7---7-7------7-------|
|---0---0-0---0-0---0-0------4---4-4------5---5-5------7-------|

chorus:
|---7---7-7---7-7---7-7------4---4-4------5---5-5--------------|
|---9---9-9---9-9---9-9------4---4-4------5---5-5--------------|
|---9---9-9---9-9---9-9------4---4-4------6---6-6--------------|
|---9---9-9---9-9---9-9------6---6-6------7---7-7--------------|
|---7---7-7---7-7---7-7------6---6-6------7---7-7--------------|
|---0---0-0---0-0---0-0------4---4-4------5---5-5--------------|

verse:
sometimes i feel like i should not be livin here
feeling Shostakovich
sometimes the things you say they really frustrate me
twice in as many hours
i live within a two kilometre, its now a barrier
near perfect circle
i snapped you left with nothing more to say
i got carried away
please carry me away

chorus:
sun shining, it holidays
much needed urban getaway
im smiling, its holidays
the natures got something to say

verse:
looks like youve heard and i can understand youre sad
please dont analyse it
im not the guy who took you for a ride then said
i guess your payin for it
i live within a two kilometre, its now a barrier
near perfect circle
damn straight youre strong but be honest youre wrong
and i can carry on
lets try to carry on

chorus x2

tabbed by mike crozier (mike_crozier@hotmail.com)

any questions/comments, or if i've tabbed something wrong email me

cheers hope you like the song
Comments