Elemeno P - Fast Times In Tahoe Chords & Tabs

 

Fast Times In Tahoe Chords & Tabs

Elemeno P Chords & Tabs

Version: 5 Type: Tab 0 ratings
1 star 2 stars 3 stars 4 stars 5 stars
comments

Fast Times In Tahoe Tab

-------------------------------------------------------------------------------
			     Fast Times In Tahoe - Elemeno P
-------------------------------------------------------------------------------
Tabbed by:Strum
Email:Little_white_pakeha@hotmail.com

Tuning:
[ Tab from: http://www.guitartabs.cc/tabs/e/elemeno_p/fast_times_in_tahoe_tab_ver_5.html ]
e|----------------------------------------------------------------------
B|----------------------------------------------------------------------
G|6-666-6---------------------------------------------------------------
D|6-666-6-6-6-66-6/8-88-8--3-3-33-3/4-44-4--6-6-6-----------------------
A|4-444-4-6-6-66-6/8-88-8--3-3-33-3/4-44-4--6-6-6-----------------------
E|--------4-4-44-4/6-66-6--1-1-11-1/2-22-2--4-4-4-----------------------

This is my first tab. this is only the intro but ill finish the song and submit the rest.
Comments