Elefant - Lolita Chords & Tabs

 

Lolita Chords & Tabs

Elefant Chords & Tabs

Version: 1 Type: Tab

Lolita Tab

-------------------------------------------------------------------------------
			     Lolita - Elefant
-------------------------------------------------------------------------------
Tabbed by:catboy88
Email:catboy88@hotmail.com

Tuning:EADGBe

e|--------------------------------------------------------------------------|
B|--------------------------------------------------------------------------|
G|--------------------------------------------------------------------------|
D|--------------------------------------------------------------------------|
A|-----------------22----2--------------------------------------------------|
E|--00-33-22-55-33----55------00-33-22-55-33-22-0---------------------------|
[ Tab from: http://www.guitartabs.cc/tabs/e/elefant/lolita_tab.html ]
e|--------------------------------------------------------------------------|
B|--------------------------------------------------------------------------|
G|--------------------------------------------------------------------------|
D|--22-55-44-77-55-99-77-9----22-55-44-77-55-44-2---------------------------|
A|--22-55-44-77-55-99-77-9----22-55-44-77-55-44-2---------------------------|
E|--00-33-22-55-33-77-55-7----00-33-22-55-33-22-0---------------------------|

e|--------------------------------------------------------------------------|
B|--------------------------------------------------------------------------|
G|--------------------------------------------------------------------------|
D|---22-22-55-44-2-------------5-------9------------------------------------|
A|---22-22-55-44-2-------------5-------9------------------------------------|
E|---00-00-33-22-0-------------3-------7--(Let both ring)-------------------|


===============================================================================