Elefant - Gallery Girl Chords & Tabs

 

Gallery Girl Chords & Tabs

Elefant Chords & Tabs

Version: 1 Type: Bass Tab 0 ratings
1 star 2 stars 3 stars 4 stars 5 stars
comments

Gallery Girl Bass Tab

I'm not gonna claim that this is 100% right, but it sounds pretty damn close to me. 
here goes nothing.


Intro/Verse
G|------------------------------------------------|
D|---------------------1----------1---------------|
A|3---------3-------------------------------------|
D|--3--3------3--3-3-------4--4-------4--4-4------| x6 Times

[ Tab from: http://www.guitartabs.cc/tabs/e/elefant/gallery_girl_btab.html ]
Chorus
G|------------------------------------------------|
D|------------------------------------------------|
A|------------------------------------------------|
E|3--3-3-3-4--4-4--4-4-4--1-1-1-1-3--3-3--3-3-3---| x3


Outro
G|------------------------------------------------|
D|------1-1-1-------------------------------------|
A|3-3-3-------------------------------------------|
E|------------4-4-4-9-9-9-------------------------|

I'm not exactly sure what he's doing on the bridge, basically I'm just to lazy
to figure out, but you can play the Intro/Chorus and it sounds fine to me.
And I didn't write how many times they do the outro because it's a shitload.
So enjoy the tab. Quesions or criticism: you can reach me at propagandhi81@aol.com
Comments