Electric Wizard - We Hate You Chords & Tabs

 

We Hate You Chords & Tabs

Electric Wizard Chords & Tabs

Version: 1 Type: Tab 0 ratings
1 star 2 stars 3 stars 4 stars 5 stars
comments

We Hate You Tab

Electric Wizard - We Hate You (complete)
Tabbed by Thumper, 2003
supersonicfrog@hotmail.com

Enjoy!

NOTES - The / are bends. Listen to the song for exactly how much to bend. 
      - The bracketed 0's aren't actually in the song (i don't think), but the band have a super super massive distorted fuzz         thing, which I for one don't, and the extra 0's give more of the effect of the song.
      - I did this for my lovely seven string guitar - if you don't have one, tune your 6-string down to a B, but tune the            highest string to the 4th fret, not the second highest (tune that to 5th, like the rest). It should work fine, then.
        Either that, or make up for it in how you play, ie, copy this to notepad and paste this section over it...
	|--5/-6-5/-6-5/-6-7/-8-7/-9/-|

|---------------------------------------|
|---------------------------------------|
|---------------------------------------|
|---------------------------------------|
|----------2-----2-------------2-----3/-|
|-2--2----------------2--2--------------|
|-0--0--3-----3-------0--0--3-----3-----|

[ Tab from: http://www.guitartabs.cc/tabs/e/electric_wizard/we_hate_you_tab.html ]
|---------------------------------------|
|---------------------------------------|
|---------------------------------------|
|---------------------------------------|
|----------9-----9-------------9------9/|
|---------------------------------------|
|-7--7--10----10-----7--7--10-----10----|
|-0--0--(0)---(0)----0--0--(0)----(0)---|

|---------------------------------------|
|---------------------------------------|
|---------------------------------------|
|---------------------------------------|
|---------------------------------------|
|-6--6----------9--9--------------------|
|-4--4--0--4/---7--7--0--4/-------------|

|--------------------------------|
|--------------------------------|
|--------------------------------|
|--------------------------------|
|--------------------------------|
|-6--6-6--6--6-6-6--2--2-2--2/---|
|-4--4-4--4--4-4-4--0--0-0-------|
     . .     . . .     . .  

|----------------------------|
|--4/-5-4/-5-4/-5-6/-7-6/-8/-|
|----------------------------|
|----------------------------|
|----------------------------|
|----------------------------|
|----------------------------|


Comments