Electric Six - Synthesizer Chords & Tabs

 

Synthesizer Chords & Tabs

Electric Six Chords & Tabs

Version: 1 Type: Tab 0 ratings
1 star 2 stars 3 stars 4 stars 5 stars
comments

Synthesizer Tab

Electric 6 - Synthesizer
Alritey then I have tabbed out the synth part,
please rate this tab

h- hammer on
p - pull off


The intro/ verse bit

e]-----------------
B]------------0----
G]-----------------
D]----------2---2--
A]--5p3h5p3--------
E]-----------------

e]-----------------
B]-----------------
G]-----------------
D]-----------------
A]--5p3h5p3---2----
E]----------0---0--

e]-----------------
B]------------0----
G]-----------------
D]----------2---2--
A]--5p3h5p3--------
E]-----------------

after this there are two chords which are:

e]------------
B]------------
G]--7---------
D]--7----7----
A]--5----7----
E]-------5----

The chorus but goes
[ Tab from: http://www.guitartabs.cc/tabs/e/electric_six/synthesizer_tab.html ]
e]------------------------------------
B]------------------------------------
G]------------------------------------
D]--5-5-5-5-5-5-5-5--7-7-7-7-7-7-7-7--
A]--5-5-5-5-5-5-5-5--7-7-7-7-7-7-7-7--
E]--3-3-3-3-3-3-3-3--5-5-5-5-5-5-5-5--

e]------------------------
B]------5----------5------
G]--5-7---7-5--5-7---7-5--
D]------------------------
A]------------------------
E]------------------------

The only other bit is the interlude

e]------------------------------------
B]------------------------------------
G]--5-5-5-5-5-5-5-5-----------9-9-9-9-
D]--5-5-5-5-5-5-5-5--7-7-7-7--9-9-9-9-
A]--3-3-3-3-3-3-3-3--7-7-7-7--7-7-7-7-
E]-------------------5-5-5-5----------

Thats it. Just use a synthy effect, 
eg if you have a Zoom 505 mk2 with the preset effects still - use E1

PLEASE RATE THIS TAB!
When I finish "I'm The Bomb" i will post that on here n'all
Peace out, Abe.
Comments