Electric Six - High Voltage Chords & Tabs

 

High Voltage Chords & Tabs

Electric Six Chords & Tabs

Version: 1 Type: Bass Tab 0 ratings
1 star 2 stars 3 stars 4 stars 5 stars
comments

High Voltage Bass Tab

Artist:Electric Six
Track:High Voltage
Album:Fire
Tabbed by Daniel Jones
[ Tab from: http://www.guitartabs.cc/tabs/e/electric_six/high_voltage_btab.html ]
G----4----4-----4-----4------7----7-----7-----7----9-----9-----9-----9--
D-----------------------------------------------------------------------
A-2----2-----2----2------5-----5-----5-----5-----7----7-----7------7----
E-----------------------------------------------------------------------


G--------------------------------------------------------------
D----9-----9-----7-----8---------------------------------------
A--------------------------------------------------------------
E-7-----7-----5-----6------------------------------------------

Then repeat EASY
Comments