Electric Six - Gay Bar Chords & Tabs

 

Gay Bar Chords & Tabs

Electric Six Chords & Tabs

Version: 9 Type: Tab 0 ratings
1 star 2 stars 3 stars 4 stars 5 stars
comments

Gay Bar Tab

Electric 6  Gay Bar
Standard Tuning
Tabbed by Tom Warren


Intro and Main Riff 
e|--------------------------------|
B|--------------------------------|
G|--------------------------------|
D|-------3-5-3--------------------|
A|---5-5-------5-4-3-3-----3-3-4--|
E|---------------------5-5--------|

1st Solo played 4 times
e|-----------------------------------------------|
B|-----------------------------------------------|
G|-----------------------------------------------|
D|---17-17-17-19b-17-17-17-19-17-19-17-19-17-----|
A|-----------------------------------------------|
E|-----------------------------------------------|


Next Bit played 4 times
e|-------------------------------------------------------------|
B|-------------------------------------------------------------|
G|--7-7-7-7-7-7-5-5-5-5-5-5-5-5-------on 4th-----7----on end---|
D|--7-7-7-7-7-7-5-5-5-5-5-5-5-5-------time play--7-------------|
A|--5-5-5-5-5-5-3-3-3-3-3-3-3-3------------------5-------------|
E|-------------------------------------------------------------|

Then main riff again a few times
e|-----------------------------------------------|
B|-----------------------------------------------|
G|-----------------------------------------------|
D|-------3-5-3-----------------------------------|
A|---5-5-------5-4-3-3-----3-3-4-----------------|
E|---------------------5-5-----------------------|

Then
e|----------------------------------|
B|----------------------------------|
G|--7-7-7-7-7-7-5-5-5-5-5-5-5-5-7---|
D|--7-7-7-7-7-7-5-5-5-5-5-5-5-5-7---|
A|--5-5-5-5-5-5-3-3-3-3-3-3-3-3-5---|
E|----------------------------------|

Pause then
e|-----------------------------------------------|
B|-----------------------------------------------|
G|-----------------------------------------------|
D|-------3-5-3-----------------------------------|
A|---5-5-------5-4-3-3-----3-3-4-----------------|
E|---------------------5-5-----------------------|
[ Tab from: http://www.guitartabs.cc/tabs/e/electric_six/gay_bar_tab_ver_9.html ]
Then
e|----------------------------------|
B|----------------------------------|
G|--7-7-7-7-7-7-5-5-5-5-5-5-5-5-7---|
D|--7-7-7-7-7-7-5-5-5-5-5-5-5-5-7---|
A|--5-5-5-5-5-5-3-3-3-3-3-3-3-3-5---|
E|----------------------------------|


2nd Solo
e|----------------------------------------|
B|----------------------------------------|
G|----------------------------------------|
D|-------------12-15-12-12-15-12----12----|
A|-15-15-15-15-------------------15----15-|
E|----------------------------------------|

e|------------------------------------------|
B|------------------------------------------|
G|------------------------------------------|
D|-------------12-15-12-12-15-12----12------|
A|-15-15-15-15-------------------15----15-12|
E|------------------------------------------|


e|------------------------------------------|
B|------------------------------------------|
G|------------------------------------------|
D|-------------12-15-12-12-15-12----12------|
A|-15-15-15-15-------------------15----15-12|
E|------------------------------------------|


e|---------------------------------------------|
B|---------------------------------------------|
G|-------------------12b-12b-12b-12b-12b-12fb--|
D|-------------12-15---------------------------|
A|-15-15-15-15---------------------------------|
E|---------------------------------------------|


e|-----------------------------------------------|
B|-----------------------------------------------|
G|--19b-19-19-19-19-19-17b-17-17-17-17-17-17-17--|
D|-----------------------------------------------|
A|-----------------------------------------------|
E|-----------------------------------------------|

Ending
e|------------------------------------------|
B|------------------------------------------|
G|--7-7-7-7-7-7-5-5-5-5-5-5-5-5/------------|
D|--7-7-7-7-7-7-5-5-5-5-5-5-5-5/------2-----|
A|--5-5-5-5-5-5-3-3-3-3-3-3-3-3/------3-----|
E|------------------------------------2-----|
Comments