Electric Six - Gay Bar Chords & Tabs

 

Gay Bar Chords & Tabs

Electric Six Chords & Tabs

Version: 8 Type: Tab 0 ratings
1 star 2 stars 3 stars 4 stars 5 stars
comments

Gay Bar Tab

   
Tuning: Normal (EADGBe)

Main Riff
e--------------------------------------------------
B--------------------------------------------------
G--------------------------------------------------
D---------15-17-15---------------------------------
A---17-17----------17-16-15-15-------15-16---------
E------------------------------17-17-------17------

Solo 1
----------------------------------------------------------------------------
----------------------------------------------------------------------------
--14-14-14-13-13-12-12-12-12-12-PLAY----19-19-19-18b-17-17-17-17-17--PLAY---
--14-14-14-13-13-12-12-12-12-12-FOUR---------------------------------FOUR---
--------------------------------TIMES--------------------------------TIMES--
----------------------------------------------------------------------------

Solo 2
--------------------------------------------------------------------------
--------------------------------------------------------------------------
-----------------------------------------PLAY-----------------------------
----------15-17-15-----------------------THREE------------15-17-15-17b----
-17-17-17----------17-17-17-17-15-15-15--TIMES---17-17-17-----------------
--------------------------------------------------------------------------
[ Tab from: http://www.guitartabs.cc/tabs/e/electric_six/gay_bar_tab_ver_8.html ]
(#1)WHEN HE REPEATS "GAY BAR" MANY TIMES PLAY
---------------------------------------------------------------------------
---------------------------------------------------------------------------
---------------------------------------------------------------------------
--17-17-17-17-17-15-15-15-15-15--------------------------------------------
---------------------------------------------------------------------------
---------------------------------------------------------------------------
AS MANY TIMES AS NEEDED

(#2)
---------------------------------------------------------------------------
---------------------------------------------------------------------------
-19-19-19-18b-17-17-17-17-17--PLAY----------------------------------PLAY---
------------------------------FOUR----17-17-17-17-17-15-15-15-15-15-FOUR---
------------------------------TIMES---------------------------------TIMES--
---------------------------------------------------------------------------

ENDING
---------2------
---------3------
---------2------
---------0------
--17------------
----------------
        (D)

Main Riff x10
Solo1 x1
Main Riff x3
(#1) x1
Main Riff x7
(#1) x1
Solo2 x1
(#2) x1
Ending


If you want any GOOD tabs I might know them (don't get your hopes up too high) so e-mail me at:
Pro_Arsonist@hotmail.com

ALWAYS REMEBER: PUNK MUSIC SUCKS. BUY ALBUMS BY INME, ELECTRIC SIX, PENNYWISE,
FOO FIGHTERS AND PLACEBO ECT. LISTEN TO THEM AND LEARN FROM THE BEST.

NEVER BUY MUSIC BY NEW FOUND GLORY, AMERICAN HI-FI AND SUGARCULT.
IF YOU DO BURN THEM NOW!!!!!!!!!!!!!

Dan THE Man(iac)
Comments