Electric Six - Gay Bar Chords & Tabs

 

Gay Bar Chords & Tabs

Electric Six Chords & Tabs

Version: 5 Type: Tab 0 ratings
1 star 2 stars 3 stars 4 stars 5 stars
comments

Gay Bar Tab

Tabbed by:Tom Jackson
Email:

Tuning:Standard

The intro is bang on, i think:

e|----------------------------------------------| x1 Clean then distorted
B|----------------------------------------------|
G|----------------------------------------------|
D|-------3-5-3----------------------------------|
A|---5-5-------5-4-3-3-----3-4------------------|
E|---------------------5-5-----5----------------|
[ Tab from: http://www.guitartabs.cc/tabs/e/electric_six/gay_bar_tab_ver_5.html ]
This little riff is quit ehard, and i am not sure what he does, but its based on:
Add some little bends in and little licks in for the effect.

e|----------------------------------------------|
B|----------------------------------------------|
G|--7----5--------------------------------------|
D|--7----5--------------------------------------|
A|--5----3--------------------------------------|
E|----------------------------------------------|
Comments