Electric Six - Gay Bar Chords & Tabs

 

Gay Bar Chords & Tabs

Electric Six Chords & Tabs

Version: 2 Type: Bass Tab 0 ratings
1 star 2 stars 3 stars 4 stars 5 stars
comments

Gay Bar Bass Tab

Electric 6
Gay Bar
Tabber: Craig Palmer
Standard tuning (EADG)
~=hold note

Guitar intro x4

intro x3
G-------------------------
D------3-5-3--------------
A--5-5------5-4-3-3---3-4-
E------------------5-5---5
[ Tab from: http://www.guitartabs.cc/tabs/e/electric_six/gay_bar_btab_ver_2.html ]
verse x3
G-------------------------
D------3-5-3--------------
A--5-5------5-4-3-3---3-4-
E------------------5-5---5

then x1
G-------------------------
D------3-5-3--------------
A--5-5------5-3-----------
E---------------5-3-1-----

in-berween bit/guitar solo x lots
G-------------------------
D------3-5-3--------------
A--5-5------5-4-3-3---3-4-
E------------------5-5---5

end
G-------
D-------
A-5~----
E-------

Enjoy...
Comments