Electric Six - Dance Commander Chords & Tabs

 

Dance Commander Chords & Tabs

Electric Six Chords & Tabs

Version: 1 Type: Tab 0 ratings
1 star 2 stars 3 stars 4 stars 5 stars
comments

Dance Commander Tab

   
Dance Commander by Electric Six
This is quite an easy song with not a lot to it and its just power chords. Simple :)

This riff is used throughout.

e]-------------------------------------------
B]-------------------------------------------
G]-------------------------------------------
D]--4--4-5-5-5-5-5-5-9-9-9-9-9-9-9-9-9-9-9-9-
A]--4--4-5-5-5-5-5-5-9-9-9-9-9-9-9-9-9-9-9-9-
E]--2--2-3-3-3-3-3-3-7-7-7-7-7-7-7-7-7-7-7-7-

or if you prefer....

e]-------------------------------------------
B]-------------------------------------------
G]---------------------4-4-4-4-4-4-4-4-4-4-4-
D]--4--4-5-5-5-5-5-5-4-4-4-4-4-4-4-4-4-4-4-4-
A]--4--4-5-5-5-5-5-5-2-2-2-2-2-2-2-2-2-2-2-2-
E]--2--2-3-3-3-3-3-3-------------------------

This is played at the end of some choruses and verses.
[ Tab from: http://www.guitartabs.cc/tabs/e/electric_six/dance_commander_tab.html ]
e]---------------------------------
B]---------------------------------
G]-7-7-7-7-7-7-7-7-9-9-9-9-9-9-9-9-
D]-7-7-7-7-7-7-7-7-9-9-9-9-9-9-9-9-
A]-5-5-5-5-5-5-5-5-7-7-7-7-7-7-7-7-
E]---------------------------------

Then the interlude ( I wanna make it last forever) goes..

e]---------------------------------
B]---------------------------------
G]---------------------------------
D]-9-9-9-9-9-9-9-9--9-9-9-9-9-9-9-9-
A]-9-9-9-9-9-9-9-9--9-9-9-9-9-9-9-9-
E]-7-7-7-7-7-7-7-7--7-7-7-7-7-7-7-7-

e]---------------------------------
B]---------------------------------
G]---------------------------------
D]-5-5-5-5-5-5-5-5--7-7-7-7-7-7-7-7-
A]-5-5-5-5-5-5-5-5--7-7-7-7-7-7-7-7-
E]-3-3-3-3-3-3-3-3--5-5-5-5-5-5-5-5-

Towards the end a little lead riff/lick like this comes in....

G]--9p7------
D]------9-9--

End with.

D]--4--4-5-5-5-5-5-5-9-
A]--4--4-5-5-5-5-5-5-9-
E]--2--2-3-3-3-3-3-3-7-

Just remember to use ton's of distortion on the chorus and less on the verses and
repeat everything as nescecarry.
Peace out. Abe.
Comments