Electric Light Orchestra - Roll Over Beethoven Chords & Tabs

 

Roll Over Beethoven Chords & Tabs

Electric Light Orchestra Chords & Tabs

Version: 1 Type: Tab 0 ratings
1 star 2 stars 3 stars 4 stars 5 stars
comments

Roll Over Beethoven Tab

-----------1313131313131313-16p15p13-----------------------|
-----13-15-1313131313131313----------16p15p13--------------|
--14------------------------------------------16p15p14-13--|
-----------------------------------------------------------|
-----------------------------------------------------------|
-----------------------------------------------------------|
[ Tab from: http://www.guitartabs.cc/tabs/e/electric_light_orchestra/roll_over_beethoven_tab.html ]
----------------------------------|
----------------------------------|
--14-1414-141414-14-1414----------|
--15-1515-151515-15-1515----------|
--15-1515-151515-15-1515----------|
----------------------------------|

-1313131313-----------|
------------15-13-----|
------------------14--| X4
----------------------|
----------------------|
----------------------|

--16-15-13-16-15-13--------------------------------------------|
-----------16-15-13-16-15-13-13-131313-131313-131313-----------|
-----------------------------10-101010-101010-101010-----------|
---------------------------------------------------------------|
---------------------------------------------------------------|
---------------------------------------------------------------|

Rock
on

dandaman3@hotmail.co.uk
Comments