Electric Light Orchestra - Mr Blue Sky Chords & Tabs

 

Mr Blue Sky Chords & Tabs

Electric Light Orchestra Chords & Tabs

Version: 1 Type: Tab 0 ratings
1 star 2 stars 3 stars 4 stars 5 stars
comments

Mr Blue Sky Tab

Tabbed by Samuel guthrie  (I am only 13 years of age!)
Artist: E.L.O
Song: Mr blue sky
Album: out of the blue

Any comment's or corrections email me at muppetman91@aol.com

You'll love this!

Electric guitar
||------------|--------|-----------|---10-------|----------|
||------10-11-|10------|-----------|10----12----|----------|
||---10-------|--------|12/--12-10-|---------10-|12/--12/--|
||10----------|--------|-----------|------------|----------|
||------------|--------|-----------|------------|----------|
||------------|--------|-----------|------------|----------|
[ Tab from: http://www.guitartabs.cc/tabs/e/electric_light_orchestra/mr_blue_sky_tab.html ]
||-----------|----------|-------------|-----------|----------|
||-----------|----------|-------------|--10----10-|----------|
||12-10----10|12/----10-|12-10-12-10--|12---12----|10--10 12-|
||------12---|----12----|-------------|-----------|----------|
||-----------|----------|-------------|-----------|----------|
||-----------|----------|-------------|-----------|----------|

||-----------|--------|-----------|
||10h11p10---|10------|\10--------|
||--------12-|--------|-----12-10-| Enjoy!
||-----------|--------|-----------|
||-----------|--------|-----------|
||-----------|--------|-----------|
Comments