Electric Light Orchestra - Ma Ma Ma Belle Chords & Tabs

 

Ma Ma Ma Belle Chords & Tabs

Electric Light Orchestra Chords & Tabs

Version: 1 Type: Tab 0 ratings
1 star 2 stars 3 stars 4 stars 5 stars
comments

Ma Ma Ma Belle Tab

   
-----------------------------------------------------------------------------
	Ma-Ma-Ma Belle - Electric Light Orchestra
-----------------------------------------------------------------------------
Tabbed by:ME
Email:never_mind_@hotmail.com
Yet another underrated song by E.L.O. ,well enjoy


Tuning:DADGBe
[ Tab from: http://www.guitartabs.cc/tabs/e/electric_light_orchestra/ma_ma_ma_belle_tab.html ]
e|---------------------------------------------------------------------------|
B|-8-7-8-8-8-7--6-6-5--------------------------------------------------------|
G|-7-7-7-7-7-7--5-5-5-----------7-7-7----------------------------------------|
D|-7-7-7-7-7-7--5-5-5-----0-----7-7-7----------------------------------------|
A|-5-5-5-5-5-5--3-3-3--------0--5-5-5----------------------------------------|
D|--------------------0-3b-3b0-----------------------------------------------|
    Repeat a couple of times
e|---------------------------------------------------------------------------|
B|---------------------------------------------------------------------------|
G|---------------------------------------------------------------------------|
D|--7-7-9-7-9-7-7-7-7-9-7-9--------------------------------------------------|
A|--5-5-5-5-5-5-5-5-5-5-5-5--------------------------------------------------|
D|---------------------------------------------------------------------------|

e|---------------------------------------------------------------------------|
B|---------------------------------------------------------------------------|
G|---------------------------------------------------------------------------|
D|-2-2-4-2-2-2-4-2-2-2-4-2--7-7-9-7-9-7-7-7-7-9-7-9--------------------------|
A|-0-0-0-0-0-0-0-0-0-0-0-0--5-5-5-5-5-5-5-5-5-5-5-5--------------------------|
D|---------------------------------------------------------------------------|

e|---------------------------------------------------------------------------|
B|---------------------------------------------------------------------------|
G|---------------------------------------------------------------------------|
D|-2-2-4-2-2-2-4-2-2-2-4-2---------------------------------------------------|
A|-0-0-0-0-0-0-0-0-0-0-0-0-5-5-5-5-5-5-5-5-5-5-5-5---------------------------|
D|-------------------------5-5-5-5-5-5-5-5-5-5-5-5---------------------------|

| b  bend

This song sounds really cool if you play it right ,don't forget to crank up the 
HAVE FUN
=============================================================================
Comments