Electric Light Orchestra - Do Ya Chords & Tabs

 

Do Ya Chords & Tabs

Electric Light Orchestra Chords & Tabs

Version: 1 Type: Tab 0 ratings
1 star 2 stars 3 stars 4 stars 5 stars
comments

Do Ya Tab

Took me a while to get this soing write, but when i did it sounded exactly like the
song...once in a while in the song the same chord will be repeated, in different
strumming motions, but i dont have time to do that: have fun

e---2------2--2--------3---|-----2-----2--2-------3---|
B---3------2--2------------|-----3-----2--2-----------|
G---2------2--2------------|-----2-----2--2-----------|
D----------2--2------------|-----------2--2-----------|<--do this twice
A----------------------2---|----------------------2---|
E----------------------3---|----------------------3---|

e---2-2---2-2---3-3---2-2--|--2-2---2-2---3-3---2-2---|
B---3-3---2-2---------2-2--|--3-3---2-2---------2-2---|
G---2-2---2-2---------2-2--|--2-2---2-2---------2-2---|
D---------2-2---------2-2--|--------2-2---------2-2---|
A---------------2-2--------|--------------2-2---2-2---|
E---------------3-3--------|--------------3-3---2-2---|

e---2-2---2-2---3-3---2-2--|--2-2---2-2---3-3---2-2---|
B---3-3---2-2---------2-2--|--3-3---2-2---------2-2---|
G---2-2---2-2---------2-2--|--2-2---2-2---------2-2---|
D---------2-2---------2-2--|--------2-2---------2-2---|
A---------------2-2--------|--------------2-2---2-2---|
E---------------3-3--------|--------------3-3---2-2---|

e---2-2---2-2---3-3---2-2--|--2-2---2-2---3-3---2-2---|
B---3-3---2-2---------2-2--|--3-3---2-2---------2-2---|
G---2-2---2-2---------2-2--|--2-2---2-2---------2-2---|
D---------2-2---------2-2--|--------2-2---------2-2---|
A---------------2-2--------|--------------2-2---2-2---|
E---------------3-3--------|--------------3-3---2-2---|
[ Tab from: http://www.guitartabs.cc/tabs/e/electric_light_orchestra/do_ya_tab.html ]
e---2-2---2-2---3-3---2-2--|--2-2---2-2---3-3---2-2---|
B---3-3---2-2---------2-2--|--3-3---2-2---------2-2---|
G---2-2---2-2---------2-2--|--2-2---2-2---------2-2---|
D---------2-2---------2-2--|--------2-2---------2-2---|
A---------------2-2--------|--------------2-2---2-2---|
E---------------3-3--------|--------------3-3---2-2---|

e---2------2--2--------3---|-----2-----2--2-------3---|
B---3------2--2------------|-----3-----2--2-----------|
G---2------2--2------------|-----2-----2--2-----------|
D----------2--2------------|-----------2--2-----------|<--do this twice
A----------------------2---|----------------------2---|
E----------------------3---|----------------------3---|

e---2-2---2-2---3-3---2-2--|--2-2---2-2---3-3---2-2---|
B---3-3---2-2---------2-2--|--3-3---2-2---------2-2---|
G---2-2---2-2---------2-2--|--2-2---2-2---------2-2---|
D---------2-2---------2-2--|--------2-2---------2-2---|
A---------------2-2--------|--------------2-2---2-2---|
E---------------3-3--------|--------------3-3---2-2---|

e---2-2---2-2---3-3---2-2--|--2-2---2-2---3-3---2-2---|
B---3-3---2-2---------2-2--|--3-3---2-2---------2-2---|
G---2-2---2-2---------2-2--|--2-2---2-2---------2-2---|
D---------2-2---------2-2--|--------2-2---------2-2---|
A---------------2-2--------|--------------2-2---2-2---|
E---------------3-3--------|--------------3-3---2-2---|

e---2-2---2-2---3-3---2-2--|--2-2---2-2---3-3---2-2---|
B---3-3---2-2---------2-2--|--3-3---2-2---------2-2---|
G---2-2---2-2---------2-2--|--2-2---2-2---------2-2---|
D---------2-2---------2-2--|--------2-2---------2-2---|
A---------------2-2--------|--------------2-2---2-2---|
E---------------3-3--------|--------------3-3---2-2---|

e---2-2---2-2---3-3---2-2--|--2-2---2-2---3-3---2-2---|
B---3-3---2-2---------2-2--|--3-3---2-2---------2-2---|
G---2-2---2-2---------2-2--|--2-2---2-2---------2-2---|
D---------2-2---------2-2--|--------2-2---------2-2---|
A---------------2-2--------|--------------2-2---2-2---|
E---------------3-3--------|--------------3-3---2-2---|
Comments