Electric Light Orchestra - Do Ya Chords & Tabs

 

Do Ya Chords & Tabs

Electric Light Orchestra Chords & Tabs

Version: 1 Type: Chords 0 ratings
1 star 2 stars 3 stars 4 stars 5 stars
comments

Do Ya Chords

   
I noticed that there was no version of ELO's "Do Ya'" in here, so I
thought that I would post the chords.
They are Dmaj, Amaj, Gmaj

D:  -----2---
    -----3---
    -----2---
    -----0---
    ---------
    ---------
[ Tab from: http://www.guitartabs.cc/tabs/e/electric_light_orchestra/do_ya_crd.html ]
A:  ---------
    -----2---
    -----2---
    -----2---
    ---------
    ---------

G:  -----3---
    -----0---
    -----0---
    -----0---
    -----2---
    -----3---

Listen to the song for the rhythm, but basically, that's it.  Or how
I learned how to play it, anyway.
Comments