Elbow - Powder Blue Chords & Tabs

 

Powder Blue Chords & Tabs

Elbow Chords & Tabs

Version: 1 Type: Tab 1 rating
1 star 2 stars 3 stars 4 stars 5 stars
comments

Powder Blue Tab

   
POWDER BLUE BY ELBOW


E--6----10----3----3--
B--8----11----3----3--
G--8----12----3----3--
D--8----13----5----5--
A--6----------5----5--
E--6----------3----3--


Repeat the above.

Chorus

Bb  (xx8766)  Bb/A (xx7766)  Bb/Ab (xx6766)

G (xx5433)  Bb (xx8766)  Bb/A  (xx7766)


Solo

E--------3------------------]---------------------------13---
B-----------4---------------]-4----6-------8--------10--11---
G-----4------------X3-------]----0----7/8-----9/10------10---
D--5------------5-----------]---------------------------12---
A-----------------------10--]---------------------------10---
E---------------------------]---------------------------10---

[ Tab from: http://www.guitartabs.cc/tabs/e/elbow/powder_blue_tab.html ]
E--13---10---------------------------------------------------
B------------11------------4-------6-----------8----------10-
G-----------------10--0------------------7/8-------8/10------
D-------------------------------8----------------------------
A------------------------------------------------------------
E------------------------------------------------------------


E---13---13---10---------------------------------------------
B---11--------------------------------11---------------------
G---10-------------10-------10-------------10----------------
D---12-------------------------------------------------------
A---10------------------10-------10---------------10---------
E---10-------------------------------------------------------

END PIECE


E--10---------10----------------------3---------------10-----
B--11-------------11------------------4------6--------11-----
G--12------------------10-------10----0---0------7/8--12-----
D--13----12----------------12---12--------------------13-----
A--------10--------------------------------------------------
E--------10--------------------------------------------------

Comments