Elbow - Grounds For Divorce Chords & Tabs

 

Grounds For Divorce Chords & Tabs

Elbow Chords & Tabs

Version: 2 Type: Bass Tab 0 ratings
1 star 2 stars 3 stars 4 stars 5 stars
comments

Grounds For Divorce Bass Tab

----------------------------------------------------------------------------
			GROUNDS FOR DIVORCE - Elbow
----------------------------------------------------------------------------

The bass is pretty quiet for large parts of the song, and I think some of these bits are 
played on a guitar, still works pretty well though…
6^ = string bend

Tuning: Standard

Verse:
G|-10-7-5-7--7--7-|
D|----------------|
A|----------------|
E|----------------| X16


Pre Chorus:
G|-------------7--7--7--7--------------7--7--7-------------|
D|-8--8--7--7--------------8--8--7--7----------------------|
A|---------------------------------------------------------|
E|---------------------------------------------------------|

[ Tab from: http://www.guitartabs.cc/tabs/e/elbow/grounds_for_divorce_btab_ver_2.html ]
Chorus:
G|--------7-----------7-5-5-----------7----------7-5-5----------7-10-7-----|
D|-6^-5--------6^-5------------6^-5--------6^-5----------6^-5--------------|
A|------5-----------5---------------5-----------5-------------5------------|
E|-------------------------------------------------------------------------|

G|--------7-5-5-----------7-10-7--------7-5------------|
D|-6^-5------------6^-5----------6^-5------------------|
A|------5---------------5-------------5----------------|
E|-----------------------------------------------------|


Bridge:
G|-10-7--------------------------------------|
D|------10-7---------------------------------|
A|-----------8-10-10^-8-8-10-10^-8-10^-8-5---|
E|-------------------------------------------| X2


Pre Verse:
G|-------------10-12-12^-10---------------------|
D|-12-12-12-12--------------12-12-12-12-12\0----|
A|----------------------------------------------|
E|----------------------------------------------|

Order:
-rest-
Verse
Pre Chorus
Chorus
Bridge
Pre Verse
Verse
Pre Chorus
-rest-
Chorus
Bridge
Comments