Elbow - Forget Myself Chords & Tabs

 

Forget Myself Chords & Tabs

Elbow Chords & Tabs

Version: 2 Type: Tab 0 ratings
1 star 2 stars 3 stars 4 stars 5 stars
comments

Forget Myself Tab

   

Title: Forget Myself
Artist: Elbow
Album: 

Instrument: 6 String Guitar

Tabbed by: Gary (rock_n__roll@hotmail.co.uk)

Tuning: Standard (E A D G B E)

I saw the intro for this tabbed and its wrong so here it is. Also use alternate
picking except for on the open string.


E|----------------------------------||
B|----------------------------------||
G|----------------------------------||
D|----------------------------------||x2
A|-10--10-10-10-10-10--10--0--0--0--||
E|----------------------------------||

[ Tab from: http://www.guitartabs.cc/tabs/e/elbow/forget_myself_tab_ver_2.html ]
E|---------------------------||
B|---------------------------||
G|---------------------------||
D|---------------------------||x2
A|-9--9-9-9-9-9--9--0--0--0--||
E|---------------------------||


E|---------------------------||
B|---------------------------||
G|---------------------------||
D|---------------------------||x2
A|-7--7-7-7-7-7--7--0--0--0--||
E|---------------------------||


E|---------------------------||
B|---------------------------||
G|---------------------------||
D|---------------------------||x2
A|-9--9-9-9-9-9--9--0--0--0--||
E|---------------------------||


Repeat all of the above again and keep on doing so. Most of the song is this,
not all but, i dont know the rest.


Key:
x = dead note
s = quick slide
/ = slide up
\ = slide down
h = hammer on
p = pull off
B = bend
br = bend an release
Comments