Elbow - Forget Myself Chords & Tabs

 

Forget Myself Chords & Tabs

Elbow Chords & Tabs

Version: 1 Type: Tab 0 ratings
1 star 2 stars 3 stars 4 stars 5 stars
comments

Forget Myself Tab

-------------------------------------------------------------------------------
			     Forget Myself - Elbow
-------------------------------------------------------------------------------
Tabbed by: Aaron Dore (age 13)
Email: greenflame_03@hotmail.com

Tuning: Drop D

my first tab go easy, elbows amazing new single! cant wait for the album
listen to song for timing. 

e|---------------------------------------------------------------------------|
B|---------------------------------------------------------------------------|
G|---------------------------------------------------------------------------|
D|---------------------------------------------------------------------------|
A|---10-10-10-10-10-10-----------10-10-10-10-10-10---------------------------|
D|-----------------------7-7-7-----------------------7-7-7-------------------|
[ Tab from: http://www.guitartabs.cc/tabs/e/elbow/forget_myself_tab.html ]
e|---------------------------------------------------------------------------|
B|---------------------------------------------------------------------------|
G|---------------------------------------------------------------------------|
D|---------------------------------------------------------------------------|
A|----9-9-9-9-9-9-----------------9-9-9-9-9-9--------------------------------|
E|-----------------------7-7-7-----------------------7-7-7-------------------|

e|---------------------------------------------------------------------------|
B|---------------------------------------------------------------------------|
G|---------------------------------------------------------------------------|
D|---------------------------------------------------------------------------|
A|-----7-7-7-7-7-7-----------------7-7-7-7-7-7-------------------------------|
E|-----------------------7-7-7-----------------------7-7-7-------------------|

e|---------------------------------------------------------------------------|
B|---------------------------------------------------------------------------|
G|---------------------------------------------------------------------------|
D|---------------------------------------------------------------------------|
A|----9-9-9-9-9-9-----------------9-9-9-9-9-9--------------------------------|
E|-----------------------7-7-7-----------------------7-7-7-------------------|

                        REPEAT AS NECCESARY
   ...
   thats all i can work out the guitar isnt as stood out in the chorus
                                                                   ...
Comments